Song name
# A B C D E F G H I J K L M N O P Q R S T U V W X Y Z

Fyrdung - 1945 tab

Fyrdung - 1945

Nedstämd ett helt steg (ej nödvändigt)

Intro/Vers
Am, F, C, G

Fingerspel (förenklat)

Am F C G
E|---------------------|------1----|------------|--------------|
B|-------------0-h1----|-------1---|-----5------|--------------|
G|---------2--------2--|--------2--|----5--5----|----4-5-4-----|
D|------2------------2-|---3-------|---5----5---|---------5----|
A|---0-----------------|--3--------|-3----------|--5-----------|
E|---------------------|-1---------|------------|-3------------|

Am F C G
E|---------------------|------1----|---------|--------------|
B|-------------0-h1----|-------1---|-----5---|--------------|
G|---------2--------2--|--------2--|----5----|-4----5-4-----|
D|------2------------2-|---3-------|---5-----|-5--------5---|
A|---0-----------------|--3--------|-3-------|-5------------|
E|---------------------|-1---------|---------|-3------------|


Refräng
Em, C, G, D
Em, C, D, C, D
Em, C, G, D x2
Tap to rate this tab
# A B C D E F G H I J K L M N O P Q R S T U V W X Y Z