Song name
# A B C D E F G H I J K L M N O P Q R S T U V W X Y Z

G-unit - This Is How We Do tab

Help us improve GuitareTab! Take a short survey!
-------------------------------------------------------------------------------
		THIS IS HOW WE DO - All Time Low
-------------------------------------------------------------------------------
Written by: All Time Low
Tabbed by: Scott S.
Email: Skrattness@gmail.com
Tuning: Standard

This is the probably the first full tab of this song so expect some flaws but for the 
part its correct.
Email me any corrections please... Enjoy!!

Intro:
e|---------------------------------------------------------------------------|
B|---------------------------------------------------------------------------|
G|-9----99--7----77--6----66--4----44----------------------------------------|
D|-9----99--7----77--6----66--4----44----------------------------------------|
A|-7777-77--6666-66--4444-44--2222-22----------------------------------------|
E|---------------------------------------------------------------------------|
    ...      ...      ...      ...

e|---------------------------------------------------------------------------|
B|---------------------------------------------------------------------------|
G|-9----99--7----77--6----66--2-2-2------------------------------------------|
D|-9----99--7----77--6----66--2-2-2------------------------------------------|
A|-7777-77--6666-66--4444-44--0-0-0------------------------------------------|
E|---------------------------------------------------------------------------|
    ...      ...      ...


Verse:
e|---------------------------------------------------------------------------|
B|---------------------------------------------------------------------------|
G|-99999999-1111-13131313-99999999-16161616-13131313-111113-999-111113-131313|
D|---------------------------------------------------------------------------|
A|-77777777-9999-11111111-77777777-14141414-11111111-999911-777-999911-111111|
E|---------------------------------------------------------------------------|
  (11th frets, not ones^)


Pre-Chorus:
Lead Guitar- (something like this, its hard to hear)
e|---7-------7--------7--------7---------------------------------------------|
B|---------------------------------------------------------------------------|
G|----9--------9--------9-------9--------------------------------------------|
D|-----9--------9--------9-------9-------------------------------------------|
A|-7-------7--------7--------7-----------------------------------------------|
E|---------------------------------------------------------------------------|

Rhythm Guitar- (hold these notes)
e|---------------------------------------------------------------------------|
B|---------------------------------------------------------------------------|
G|-9----------------------------99-99-99-99----------------------------------|
D|-9----9----7----11-9--7----9-----------------------------------------------|
A|-7----9----7----11-9--7----9--77-77-77-77----------------------------------|
E|------7----5----9--7--5----7-----------------------------------------------|

e|---------------------------------------------------------------------------|
B|---------------------------------------------------------------------------|
G|-9-------------------------------------------------------------------------|
D|-9----9----7----11-9--7----7----9----9-------------------------------------|
A|-7----9----7----11-9--7----7----9----9-------------------------------------|
E|------7----5----9--7--5----5----7----7-------------------------------------|


Chorus:
e|---------------------------------------------------------------------------|
B|---------------------------------------------------------------------------|
G|-99999999-1111-13131313-88888888-9999-1111-16161616-13131313-11113-9999----|
D|---------------------------------------------------------------------------|
A|-77777777-9999-11111111-66666666-7777-9999-14141414-11111111-99911-7777----|
E|---------------------------------------------------------------------------|


| .  palm mute
| /  slide up
| \  slide down
| h  hammer-on
| p  pull-off
| ~  vibrato
| +  harmonic
| x  Mute note
===============================================================================
Related for This Is How We Do tab