Song name
# A B C D E F G H I J K L M N O P Q R S T U V W X Y Z

Gabby La La - Be Careful What You Wish For Cause It Might Come True tab

-------------------------------------------------------------------------------
     BE CAREFUL WHAT YOU WISH FOR 'CAUSE IT MIGHT COME TRUE - Gabby La La
-------------------------------------------------------------------------------
Tabbed by: anon
Email: cjohnson2492@gmail.com

Tuning:eBGDAE

CHORUS

e|-10-10---------------------------------------------------------------------|
B|-12-12---------------------------------------------------------------------|
G|---------------------------------------------------------------------------|
D|---------------------------------------------------------------------------|
A|---------------------------------------------------------------------------|
E|---------------------------------------------------------------------------|

VERSE

e|-09-09-10-10------------------------------------------------------------------|
B|-11-11-12-12------------------------------------------------------------------|
G|------------------------------------------------------------------------------|
D|------------------------------------------------------------------------------|
A|------------------------------------------------------------------------------|
E|------------------------------------------------------------------------------|


| /  slide up
| \  slide down
| h  hammer-on
| p  pull-off
| ~  vibrato
| +  harmonic
| x  Mute note
===============================================================================

http://www.gabbylala.com/
Tap to rate this tab
 
# A B C D E F G H I J K L M N O P Q R S T U V W X Y Z