Song name
# A B C D E F G H I J K L M N O P Q R S T U V W X Y Z

Gaby Moreno - Parks And Recreation tab

-------------------------------------------------------------------------------
                        Parks and Recreation Theme Song         
-------------------------------------------------------------------------------
Tabbed by:      Daniel Leone
E-mail:         mail.dleone@gmail.com

Written by:     Gaby Moreno and Vincent Jones

Tuning:         Standard

Notes:          Intro is played twice followed by the melody.
                The Base is played all the way through but is not necessary.


        INTRO
e|------------------|------------------|------------------|------------------|
B|------------------|---10-----10------|------------------|------------------|
G|----9------9------|---10-----10------|----9------9------|--------9---------|
D|---10-----10------|---10-----10------|---10-----10------|----12---12-10----|
A|---10-----10------|-8----------------|---10-----10------|-10------------10-|
E|-8----------------|------------------|-8----------------|------------------|


        MELODY
e|------------------|------------------|------------------|------------------|
B|------------------|------------------|------------------|------------------|
G|-----9------------|---10----10-9-7-9-|----9-------------|------------------|
D|----10--9-7----10-|---10-------------|---10--9----------|---12-12-10-9-10--|
A|----10------10----|----8-------------|---10----12-10-12-|---10-------------|
E|-8----------------|------------------|------------------|------------------|

e|------------------|------------------|------------------|------------------|
B|------------------|---10-------------|------------------|------------------|
G|-----9------------|---10----10-9-7-9-|----9--9----------|------------------|
D|----10--9-7----10-|---10-------------|---10----12-10----|-------------9----|
A|----10------10----|------------------|---10----------11-|---11--11-12---12-|
E|------------------|------------------|------------------|----0-------------|
 
e|------------------|------------------|------------------|------------------|
B|------------------|------------------|------------------|-10-8-------------|
G|------------------|------------------|----------7-9-10--|-------10---9---7-|
D|---10------9-10---|---10--------7----|---7-9-10---------|------------------|
A|----0---12------8-|----8---8-10------|-10---------------|------------------|
E|------------------|------------------|------------------|------------------|

e|-7-------7--------|-5-------5--------|-3-------3--------|-1-------1--------|
B|-8-------8--------|-6-------6--------|-5-------5--------|-3-------3--------|
G|-7-------7--------|-5-------5--------|-4-------4--------|-2-------2--------|
D|------------------|------------------|------------------|------------------|
A|------------------|------------------|------------------|------------------|
E|------------------|------------------|------------------|------------------|

e|------------------|------------------|------------------|------------------|
B|------------------|------------------|------------------|------------------|
G|-----9------------|---10--9----------|------------------|------------------|
D|----10--9-7----10-|---10----12-10----|-------------9----|---10------9-10---|
A|----10------10----|----8----------11-|---11--11-12---12-|----0---12------8-|
E|-8----------------|------------------|---0--------------|------------------|

e|------------------|------------------|------------------|------------------|
B|------------------|------------------|------------------|------------------|
G|------------------|------------------|---9--------------|------------------|
D|---10--------7----|----9------7-9----|---9------------7-|---7--7-9-10------|
A|---8---8-10----10-|---10---10-----7--|---7----7-8-10----|---0-----------8--|
E|------------------|------------------|------------------|------------------|

e|------------------|------------------|--8---------------||
B|------------------|------------------|--8---------------||
G|------------------|------------------|--9---------------||
D|---7--------7-----|-10------10-------|-10---------------||
A|---8---8-10-------|-10-------9-------|-10---------------||
E|------------------|------------------|--8---------------||



        BASE
   C                  F                  C                  G
e|------------------|------------------|------------------|------------------|
B|------------------|---10-------------|------------------|----12------------|
G|----9-------------|---10-------------|----9-------------|----12------------|
D|---10-------------|---10-------------|---10-------------|----12------------|
A|---10-------------|-8-----8-----8----|---10-------------|-10----10----10---|
E|-8-----8-----8----|------------------|-8-----8-----8----|------------------|

Tap to rate this tab
# A B C D E F G H I J K L M N O P Q R S T U V W X Y Z