Guitaretab - guitar tabs
Song name
# A B C D E F G H I J K L M N O P Q R S T U V W X Y Z

Gallows - Nervous Breakdown tab

Ok so heres the Gallows version of Black Flags, Nervous Breakdown.Its in standard 
is my first User tab, i admitted some before under annoyimus. So yer i bielieve its 
good to me. please rate etc.

/ = slide up
\ = slide down

Intro/Verse
E---------------------------------------------------------------------|
B--4----4----4----5--------4----4----0-----2---2---2---3-------2---2--|
G--4----4----4----4--------4----4----0-----2---2---2---2-------2---2--|
D--4----4----4----4--------4----4----0-----2---2---2---2-------2---2--|
A--2----2----2----2--------2----2----------0---0---0---0-------0---0--|
E---------------------------------------------------------------------|


Bridge
E---------------------------------------------------------------------
B---------------------------------------------------------------------
G---------------------------------------------------------------------
D--5------5--/--7-----7-----7---------9------9----9------9----9----9--
A--5------5--/--7-----7-----7---------9------9----9------9----9----9--
E--3------3--/--5-----5-----5---------7------7----7------7----7----7--


Bridge Endings
E--------------------------------------
B--------------------------------------
G--------------------------------------   PLay the bridge twice
D----9----7--------5-----------7----5--   with this ending then..
A----9----7--------5-----------7----5--
E----7----5--------3-----------5----3--

[ Tab from: http://www.guitaretab.com/g/gallows/168881.html ]
E---------------------------------------
B---------------------------------------
G---------------------------------------  Then on the 3rd time play this.
D---9----9----9----9----9----9----9\----
A---9----9----9----9----9----9----9\----
E---7----7----7----7----7----7----7\----


Breakdown/Outro
E---------------------------------------------------------------------
B---------------------------------------------------------------------
G---------------------------------------------------------------------
D---9----9----9----9----9----9----9-------9----7-------5-------7----5- X2
A---9----9----9----9----9----9----9-------9----7-------5-------7----5-
E---7----7----7----7----7----7----7-------7----5-------3-------5----3-


Then play....
E---------------------------------------------------------------------
B---------------------------------------------------------------------
G---------------------------------------------------------------------
D---9------------------------9--------------------------9\------------
A---9------------------------9--------------------------9\------------
E---7------------------------7--------------------------7\------------

Order

Intro 0.00-0.10
Verse 0.11-0.20
Bridge 0.21-0.32
Verse 0.33-0.49
Bridge 0.50-1.01
Verse 1.02-1.17
Bridge 1.18-1.30
Verse 1.31-1.45
Bridge 1.46-1.54
Breakdown/Outro 1.54-2.06

There you go thats the tab and timings so umm yer first tab please rate etc message me 
theres any mistakes
Related for Nervous Breakdown tab