Guitaretab - guitar tabs
Song name
# A B C D E F G H I J K L M N O P Q R S T U V W X Y Z

Gallows - Leeches tab

Song: Leeches
Artist: Gallows
Album: Grey Britain

Tabbed by: garyhann
Email: garyhann@live.co.uk

Tuning: Drop D

	
  Intro/Verse  0:00  Guitar 1
e|-------------------------------------|
B|-------------------------------------|
G|--------------------------------8-7--|
D|--0000000077776665-88888-5-8888-8-7--|
A|--0000000077776665-88888-5-8888-6-5--|
D|--0000000077776665-88888-5-8888------|

  Intro/Verse - 0:00 - Guitar 2
e|------------------------------------------------------------------------------|
B|--10---10--10--10--10--10--10--------------13-10---10--10--10--13-10--10------|
G|--12^--12^-12^-12^-12^-12^-12^-12-------------12^--12^-12^-12^----12^-12^-12--|
D|------------------------------------------------------------------------------|
A|------------------------------------------------------------------------------|
D|------------------------------------------------------------------------------|
 

  Verse - 0:21  Both Guitars
e|-------------------------------------------------------------------------------------------|
B|-------------------------------------------------------------------------------------------|
G|----------------------------5555555-3-3333-8-7---------------------------5555555-3-3333-8--|
D|--5p0-3p0-2p0-7p0-3p0-2h3p2-5555555-3-3333-8-7-5p0-3p0-2p0-7p0-3p0-2h3p2-5555555-3-3333-8--|
A|----------------------------3333333-1-1111-6-5---------------------------3333333-1-1111-6--|
D|-------------------------------------------------------------------------------------------|


  Chorus - 0:30  Guitar 1  0:35
e|------------------------||----------------|
B|------------------------||----------------|
G|-----[x16]-----[x16]----||----------[x2]--|
D|--3---------5-----------||--00--00--------|
A|--3---------5-----------||--00--00--------|
D|--3---------5-----------||--00--00--------|

  0:30  Guitar 2                                             0:35
e|----------------------------------------------------------||-------------------------|
B|----------------------------------------------------------||--7--7---11---11---------|
G|----------------------------------------------------------||--9^-9^--13^--13^--[x2]--|
D|----------------------------------------------------------||-------------------------|
A|--00-5p0-3p0-5p0-6p0-5p0-3h5--00-5p0-3p0-5p0-7p0-5p0-3h5--||-------------------------|
D|----------------------------------------------------------||-------------------------|


[PLAY ALL THIS ^^^ AGAIN]


  1:39  Guitar 1
e|----------------|
B|----------------|
G|----------------|
D|--5~------------|
A|--5~------------|
D|--5~------------|

[ Tab from: http://www.guitaretab.com/g/gallows/186507.html ]
  Bridge - 1:49  Guitar 1
e|--------------------------------------------------------------------------------|
B|--------------------------------------------------------------------------------|
G|-------------------2~-------------------3~-----------------5~-------------------|
D|--5~---------------2~-------------------3~-----------------5~-------------------|
A|--5~---------------0~-------------------1~-----------------3~-------------------|
D|--5~----------------------------------------------------------------------------|

  1:49  Guitar 2
e|-------------------------------------------------------------------------------|
B|-------------------------------------------------------------------------------|
G|-------------------------------------------------------------------------------|
D|-------------3------------------3------------------3------------------3--------|
A|-----3h5p3-0---5-3-0--0-3h5p3-0---5-3-0-1--3h5p3-0---5-3-0-3--3h5p5-0---5-3-0--|
D|--5----------------------------------------------------------------------------|

  2:00  Both Guitars
e|-------------------------------------------------------------------------------|
B|-------------------------------------------------------------------------------|
G|-------------------------------------------------------------------------------|
D|-------------3------------------3------------------3------------------3--------|
A|-----3h5p3-0---5-3-0--0-3h5p3-0---5-3-0-1--3h5p3-0---5-3-0-3--3h5p5-0---5-3-0--|
D|--5----------------------------------------------------------------------------|

  2:10  Both Guitars
e|-----------------------------------------------------------|
B|-----------------------------------------------------------|
G|-----------------------------------------------------------|
D|--00-----------------00----------------00------------------|
A|--00-3h5-3-0-3-0-3-5-00-3h5-3-0-3-0----00-3h5-3-0-3-0------|
D|--00-----------------00-------------5--00-------------5-3--|

  2:30  Guitar 1
e|-------------------------------------------------------------------------------|
B|-------------------------------------------------------------------------------|
G|-------------------------------------------------------------------------------|
D|-------------3------------------3------------------3------------------3--------|
A|-----3h5p3-0---5-3-0--0-3h5p3-0---5-3-0-1--3h5p3-0---5-3-0-3--3h5p5-0---5-3-0--|
D|--5----------------------------------------------------------------------------|

  2:30  Guitar 2
e|----------------------------------------------------------------------------------------|
B|----------------------------------------------------------------------------------------|
G|--------------5--------------------5--------------------5--------------------5----------|
D|--0-0-5h7p5-0---7-5-0-0--0-5h7p5-0---7-5-0-0--0-5h7p5-0---7-5-0-0--0-5h7p5-0---7-5-0-0--|
A|----------------------------------------------------------------------------------------|
D|----------------------------------------------------------------------------------------|

  Outro  3:19  Guitar 1
e|-----------------------|
B|-----------------------|
G|--7-0~-----------------|
D|--7-0~-----------------|
A|--5-0~-----------------|
D|-----------------------|

  Outro  3:19  Guitar 2
e|-----------------------|
B|-----------------------|
G|--7-0~-----------------|
D|--7-0~-----------------|
A|--5-0~-----------------|
D|-----------------------|

Related for Leeches tab