Guitaretab - guitar tabs
Song name
# A B C D E F G H I J K L M N O P Q R S T U V W X Y Z

Gallows - Black Eyes tab

Song: Black Eyes
Artist: Gallows
Album: Grey Britain

Tabbed by: garyhann
Email: garyhann@live.co.uk

Tuning: Drop D

I keep a fresh Gallows tab in the sole of my shoes.


  Intro/Verse  Guitar 1
e|-----------------------------------------------------------------------------|
B|-----------------------------------------------------------------------------|
G|-----------------------------------------------------------------------------|
D|--555-333-00----------333-555-00----------555-333-00----------101010-121212--|
A|--555-333-00----------333-555-00----------555-333-00----------101010-121212--|
D|--555-333-00----------333-555-00----------555-333-00----------101010-121212--|

  Intro/Verse  Guitar 2
e|-------------11111111------------11111111------------11111111----------------|
B|-------------11111111------------11111111------------11111111----------------|
G|-----------------------------------------------------------------------------|
D|-----------------------------------------------------------------------------|
A|-----------------------------------------------------------------------------|
D|-----------------------------------------------------------------------------|
  1s not 11s

  Intro/Verse 2  Guitar 1
e|---------------------------------------------------------------|
B|---------------------------------------------------------------|
G|---------------------------------------------------------------|
D|--555-333-00----------333-555-00----------555-333-00-----------|
A|--555-333-00----------333-555-00----------555-333-00-----------|
D|--555-333-00----------333-555-00----------555-333-00-----------|

  Intro/Verse 2  Guitar 2
e|-------------11111111------------11111111------------11111111--|
B|-------------11111111------------11111111------------11111111--|
G|---------------------------------------------------------------|
D|---------------------------------------------------------------|
A|---------------------------------------------------------------|
D|---------------------------------------------------------------|


  Chorus  Guitar 1 & 2
e|-----------------------------||----------------------|
B|-----------------------------||----------------------|
G|-----------------------[x3]--||----------------------|
D|--00-355-101212-0-353--------||--00-355-1012-6~------|
A|--00-355-101212-0-353--------||--00-355-1012-6~------|
D|--00-355-101212-0-353--------||--00-355-1012-6~------|


[PLAY VERSE]

  
  Chorus 2  Guitar 1 & 2
e|-----------------------------||-----------------|
B|-----------------------------||-----------------|
G|-----------------------[x3]--||-----------------|
D|--00-355-101212-0-353--------||--00-355-1012-6--|
A|--00-355-101212-0-353--------||--00-355-1012-6--|
D|--00-355-101212-0-353--------||--00-355-1012-6--|
[ Tab from: http://www.guitaretab.com/g/gallows/184974.html ]
  Chorus 2  Guitar 1
e|-----------------------------||------------------------------------------|
B|-----------------------------||------------------------------------------|
G|-----------------------[x2]--||------------------------------------------|
D|--00-355-101212-0-353--------||--00-355-101212-0-353-00-355-1012-6~------|
A|--00-355-101212-0-353--------||--00-355-101212-0-353-00-355-1012-6~------|
D|--00-355-101212-0-353--------||--00-355-101212-0-353-00-355-1012-6~------|

  Chorus 2  Guitar 2
e|-----------------------------||-------------------------------------|
B|-----------------------------||-------------------------------------|
G|-----------------------[x2]--||--77-777-777-5-565-77-777-77---------|
D|--00-355-101212-0-353--------||-----------------------------6~------|
A|--00-355-101212-0-353--------||--55-555-555-3-343-55-555-55-6~------|
D|--00-355-101212-0-353--------||-----------------------------6~------|


  Bridge  Guitar 1
e|---------------------------------------|
B|---------------------------------------|
G|--77-7-7-7-77-7-7-7-77-7-7-7-77-7-7-7--|
D|---------------------------------------|
A|--55-5-5-5-55-5-5-5-55-5-5-5-55-5-5-5--|
D|---------------------------------------|

  Bridge  Guitar 2
e|-------------------------------------------------|
B|-------------------------------------------------|
G|-------------------------------------------------|
D|-------------------------------------------------|
A|--5-5-5-55-10-10-10-1010-11-11-11-1111-6-6-6-66--|
D|-------------------------------------------------|

  Bridge 2  Guitar 1 & 2
e|---------------------------------------------|
B|---------------------------------------------|
G|--7777--------------------7777---------------| x2
D|--7777-6666-33333---------7777-6666-333-1-1--|
A|--5555-6666-33333---------5555-6666-333-1-1--|
D|-------6666-33333-13\\\\-------6666-333-1-1--|

  Bridge 3  Guitar 1 & 2
e|--------------------------------------------------------------------------------|
B|--------------------------------------------------------------------------------|
G|-----------------8888---------------------------------8888----------------------|
D|--000--555--6666-8888-000-555-6666-1-1-000--555--6666-8888-000-555-6-6-6-6-6-6--|
A|--000--555--6666-6666-000-555-6666-1-1-000--555--6666-6666-000-555-6-6-6-6-6-6--|
D|--000--555--6666------000-555-6666-1-1-000--555--6666------000-555-6-6-6-6-6-6--|


Verse 2  Guitar 1
e|------------------------------------------------------------|
B|------------------------------------------------------------|
G|------------------------------------------------------------|
D|--555-333-0-00000000-333-555-0-00000000-555-333-0-00000000--|
A|--555-333-0-00000000-333-555-0-00000000-555-333-0-00000000--|
D|--555-333-0-00000000-333-555-0-00000000-555-333-0-00000000--|
              ........           ........           ........


  Outro  Guitar 1 & 2
e|---------------------------------------------|
B|---------------------------------------------|
G|--7777--------------------7777---------------| x6
D|--7777-6666-33333---------7777-6666-333-1-1--|
A|--5555-6666-33333---------5555-6666-333-1-1--|
D|-------6666-33333-13\\\\-------6666-333-1-1--|

Related for Black Eyes tab