Song name
# A B C D E F G H I J K L M N O P Q R S T U V W X Y Z

Galneryus - Hunting For Your Dream tab

-------------------------------------------------------------------------------
                     HUNTING FOR YOUR DREAMS - Galneryus
-------------------------------------------------------------------------------
Tabbed by: xangelo
E-mail: xangelo[at]gmail[dot]com

Tuning:

e|---------------------------------------------------------------------------|
B|---------------------------------------------------------------------------|
G|-------------------9/12--11~~--7------------------7-9-12-11-9-11~~---------|
D|-----------------9---------------7~~~----10~~~-10------------------12-9~~--|
A|----/7~~~--5-7-9-----------------------------------------------------------|
E|---------------------------------------------------------------------------|

e|---------------------------------------------------------------------------|
B|---------------------------------------------------------------------------|
G|---------------------------------------------------------------------------|
D|---7-5-7~~--5-7-9\------7-9-10\-----9-10-12\-------------------------------|
A|---------------------------------------------------------------------------|
E|---------------------------------------------------------------------------|

e|--------------------------------------------14p11---------11--14p11-12~~~~-|
B|------------------------11p8-------8-11p8---------12---12------------------|
G|--14--12-11-12-14-12---------9---9-------------------11--------------------|
D|-----9--9--9--9--9-------------11------------------------------------------|
A|---------------------------------------------------------------------------|
E|---------------------------------------------------------------------------|



************************************

| /   slide up
| \   slide down
| h   hammer-on
| p   pull-off
| ~   vibrato
| +   harmonic
| x   Mute note
| b   Bend
| pb  Pre-bend
| br  Bend release
| pbr Pre-bend release
| brb Bend release bend

************************************
Tap to rate this tab
# A B C D E F G H I J K L M N O P Q R S T U V W X Y Z