Song name
# A B C D E F G H I J K L M N O P Q R S T U V W X Y Z

Gang Of Four - Damaged Goods tab

Song:      Damaged Goods
Artist:    Gang of Four
Album:     Entertainment
Guitarist: Andy Gill

Intro
In the intro the bass plays 1st and then the guitar plays 2nd in a Call and Return type
thing. Upstroke the Guitar parts on the Intro and on the fourth time every chord is 
slide the Emin down to the Amin and vice versa.

Bass        Guitar               Bass        Guitar
                 Emin                             Amin
G|------    E|---7------          G|------    E|---5-----|
D|------    B|---8------          D|------    B|---5-----|
A|---77-    G|---9------          A|------    G|---------|
E|------    D|----------          E|---88-    D|---------|
            A|---------- X4 then              A|---------| X4
            E|----------                      E|---------|

Verse
        Emin                         Amin
E|--00--7-xx-7-x-7-x-7-7-xxx-777--00--5-xx-5-x-5-x-5-5-xxx-555---|
B|--00--8-xx-8-x-8-x-8-8-xxx-888--00--5-xx-5-x-5-x-5-5-xxx-555---|
G|--00--9-xx-9-x-9-x-9-9-xxx-999--00--5-xx-5-x-5-x-5-5-xxx-555---|
D|---------------------------------------------------------------|
A|---------------------------------------------------------------|
E|---------------------------------------------------------------|

Outro
     "Im kissing you goodbyeeee (goodbye goodbye goodbye goodbye goodbye)"
E|----------------------------------|
B|----------------------------------|
G|----------------------------------|
D|----------------------------------|
A|---5-7-5-7-5-7-5-7-5-7------------|
E|----------------------------------|
  * There are also some bends and lead stuff in the background. Just do
    some bends in scales of A and E and you should be fine.

End by striking Emin x4.

Thats pretty much Damaged Goods by Gang of Four. Cool Stuff.
Tap to rate this tab
# A B C D E F G H I J K L M N O P Q R S T U V W X Y Z