Song name
# A B C D E F G H I J K L M N O P Q R S T U V W X Y Z

Garbage - Vow tab

Highlighted       Show chord diagrams
Band: Garbage
Song Title: Vow
Tuning: Normal

Chords used for this song.


  Asus2 Cmaj7 Fmaj7 Dsus   Bb    Em     G    F#m       Dm    Bm     D5    Bb5   F5
E|--------------------------1-----------3-----9--------10-----7-----------------------|
B|--------------1-----3-----3-----------3-----10-------11-----7-----------------------|
G|--2-----2-----2-----2-----3-----------------11-------12-----7-----7-----3-----------|
D|--2-----3-----3-----------3-----2-----------11-------12-----9-----7-----3----3------|
A|--------------------------1-----2-----2-----9--------10-----9-----5-----1----3------|
E|--------------------------------------3---------------------7----------------1------|

     C5
E|------------------|
B|------------------|
G|------------------|
D|---5--------------|
A|---5--------------|
E|---3--------------|


Intro:
Guitars use heavy pulsing delay effect listen to song for chord changes.

Asus2	Cmaj7	Fmaj7

Verse 1:

Asus2 (I)       Cmaj7 (cant)                 	Fmaj7 (after abuse)
I 		can't use what I can't abuse 

Asus2 (and)              Cmaj7 (comes)		Fmaj7 (after you)
And I can't stop when it comes to you 

    Asus2 (burned)        Cmaj7 (back)		Fmaj7 (after door)
You burned me out but I'm back at your door 

     Asus2 (joan)       Cmaj7 (back)		Fmaj7 (after more)
Like Joan of Arc coming back for more 

         D5 (died) D5	Bb5   
I nearly died 

         Asus2 (died)	Asus2	Em
I nearly died 

         D5 (died) D5	Bb5	G5
I nearly died 

Chorus:


                  Cmaj7 (up)
I came to cut you up 

                  Dsus2 (you)
I came to knock you down 

                 G (tear)               Fmaj7 (apart)
I came around to tear your little world apart 

              Asus2 (you)
I came to shut you up 

               Dsus2 (you)
I came to drag you down 

                 G (tear)               Fmaj7 (apart)
I came around to tear your little world apart 


And break your soul apart 

Listen to song for placement of this fill. 
Guitar Fill A:

E|-------------------------------------------------------|
B|-------------------------------------------------------|
G|---2-------0-------4---4-(bend 1/2 step)---4-------0---|
D|-------2-------2------------------------------2--------|
A|-------------------------------------------------------|
E|-------------------------------------------------------|

Verse 2:

    Asus2 (burn)     Cmaj7 (to)    		Fmaj7 (after skin)
You burn and burn to get under my skin 

       Asus2 (gone)       Cmaj7 (won't)		Fmaj7 (after in)
You've gone too far now I won't give in 

    Asus2 (crucified)    Cmaj7 (back) 		Fmaj7 (after bed)
You crucified me but I'm back in your bed 

     Asus2 (jesus)       Cmaj7 (back)		Fmaj7 (after dead)
Like Jesus Christ coming back from the dead 


         D5 (died) D5	Bb5   
I nearly died 

         Asus2 (died)	Asus2	Em
I nearly died 

         D5 (died) D5	Bb5	G5
I nearly died 


Chorus 2:

                  Cmaj7 (up)
I came to cut you up 

                  Dsus2 (you)
I came to knock you down 

                 G (tear)               Fmaj7 (apart)
I came around to tear your little world apart 

              Asus2 (you)
I came to shut you up 

               Dsus2 (you)
I came to drag you down 

                 G (tear)               Fmaj7 (apart)
I came around to tear your little world apart 


And break your soul apart 

Guitar Solo:
Chords for the guitar solo part. Listen to the song for chord changes. 

Guitar 1

      F#m    D    Bm
E|-----2-----2-----2-----|
B|-----2-----3-----3-----|
G|-----2-----2-----4-----|
D|-----4-----0-----4-----|
A|-----4-----------2-----|
E|-----2-----------------|


Guitar 2
I think this repeats 4 times.

E|---------------------------------------10---10---10---7---|
B|---10---9---10---9---10---9---10---9----------------------|
G|----------------------------------------------------------|
D|----------------------------------------------------------|
A|----------------------------------------------------------|
E|----------------------------------------------------------|


         D5 (died) D5	Bb5   
I nearly died 

         Asus2 (died)	Asus2	Em
I nearly died 

         D5 (died) D5	Bb5	G5
I nearly died 


Chorus 3:

                  Cmaj7 (up)
I came to cut you up 

                  Dsus2 (you)
I came to knock you down 

                 G (tear)               Fmaj7 (apart)
I came around to tear your little world apart 

              Asus2 (you)
I came to shut you up 

               Dsus2 (you)
I came to drag you down 

                 G (tear)               Fmaj7 (apart)
I came around to tear your little world apart 


And break your soul apart 


Guitar Fill B:

E|-------------------------------------------------------------|
B|-----------------------12---12-(bend 1/2 step)-12------------|
G|---14--------12-----------------------------------------12---|
D|--------14--------14--------------------------------14-------|
A|-------------------------------------------------------------|
E|-------------------------------------------------------------|

OUtro:
Play the into chords listen to song for chord changes. 

Asus2	Cmaj7	Fmaj7

I can't stop when it comes to you 
I can't stop when it comes to you 
When it comes to you 
When it comes to you
Tap to rate this tab
# A B C D E F G H I J K L M N O P Q R S T U V W X Y Z