Song name
# A B C D E F G H I J K L M N O P Q R S T U V W X Y Z

Gary Clark Jr - The Life tab

-----------------------------------------------------------------------------
                            The Life - Gary Clark Jr.
-----------------------------------------------------------------------------
tabbed by: MaraKoomson

This is the "Live at Hotel Cafe" version.

http://youtu.be/NhDAfrtHEt4

Listen to the song for the timing on how to strum and when to stop.

**************
Capo 2nd fret
**************

Intro/verse/chorus are these 3 chords.
E|-----------|
B|--1--1--1--|
G|--2--------|
D|--3--2-----|
A|-----3--2--|
E|--------3--|

(with some variations at times)
E|--------------------|
B|--------------------|
G|--------0--2--0-----|
D|--0--3-----------3--|
A|--------------------|
E|--------------------|

Outro

E|---------------------------------------------------------------------|
B|---1---1---1---1---1---1---8----8----5---5---5---5---5---5---5---5---|
G|---2---2---2---2---2---2---9----9----6---6---6---6---6---6---6---6---|
D|---1---1---1---1---1---1---8----8----5---5---5---5---5---5---5---5---|
A|---3---3---3---3---3---3---10---10---7---7---7---7---7---7---7---7---|
E|---1---1---1---1---1---1---8----8----5---5---5---5---5---5---5---5---|

E|---------------------------------------------------------------------|
B|---1---1---1---1---1---1---8----8----5---5---5---5---5---5---5---5---|
G|---2---2---2---2---2---2---9----9----6---6---6---6---6---6---6---6---|
D|---1---1---1---1---1---1---8----8----5---5---5---5---7---7---5---5---|
A|---3---3---3---3---3---3---10---10---7---7---7---7---7---7---7---7---|
E|---1---1---1---1---1---1---8----8----5---5---5---5---5---5---5---5---|

easy and sounds nice!
Tap to rate this tab
 
# A B C D E F G H I J K L M N O P Q R S T U V W X Y Z