Gary Clark Jr - Please Come Home tab

-------------------------------------------------------------------------------
                   Please Come Home - Gary Clark Jr.
-------------------------------------------------------------------------------
 

Tabbed by: Guilherme LD


 This is just a fun background guitar for the song, I don't think it's completely
accurate.

  
 This is my first tab and I'm not a very good player. I decided to put this up
because there are no tabs for this song on the internet and I really like Gary
Clark Jr. and think more people should be able to have fun with his music, so 
please, comment corrections so I can learn this song better too.


 It's the same chord structure all over the song, but with your pinkie changing
once in a while and all the other effects, such as slides and vibratos, he plays
with in each different version. I inserted a few examples of them...





Tuning:Standard

e|--3----0-----3-----0------8----7/8----0----10-------8---8/10----------------|
B|--1----1-----1-----1------6----5/6----6----8--------6---6/8-----------------|
G|--2----2-----2-----2------7----6/7----7----9--------7---7/9-----------------|
D|--3----3-----3-----3------8----7/8----8----10-------8---8/10----------------|
A|--x----x-----x-----x------x----x------x----x--------x---x/x-----------------|
E|--1----1-----1-----1------6----5/6----6----8--------6---6/8-----------------|

 

************************************

| /   slide up
| \   slide down
| H   hammer-on
| p   pull-off
| ~   vibrato
| +   harmonic
| x   Mute note
| B   Bend
| pb  Pre-bend
| br  Bend release
| pbr Pre-bend release
| brb Bend release bend

************************************
 
Tap to rate this tab
 
# A B C D E F G H I J K L M N O P Q R S T U V W X Y Z