Song name
# A B C D E F G H I J K L M N O P Q R S T U V W X Y Z

Gathering - Souvenirs tab

Help us improve GuitareTab! Take a short survey!
Intro (play twice)
e|---------------------------------------------------------------------------|
B|---------------------------------------------------------------------------|
G|------3-----------3----------3----------3----------------------------------|
D|--0-3---3-7-----3---3-7--0-3---3-7----3----3-7-----------------------------|
A|-------------1----------------------1--------------------------------------|
E|---------------------------------------------------------------------------|

Singing starts. Repeat intro riff, then
e|---------------------------------------------------------------------------|
B|-10-10-10-10-10-10-10-10-10-11-8-(x2)-11-11-11-11-11-11-11-11-11-10-8(x2)--|
G|---------------------------------------------------------------------------|
D|---------------------------------------------------------------------------|
A|---------------------------------------------------------------------------|
E|---------------------------------------------------------------------------|
repeat whole section, then
e|---------------------------------------------------------------------------|
B|---------------------------------------------------------------------------|
G|--0-7-9-0-7-9---7-9----7-9--0-7-9------------------------------------------|
D|--------------7------7-----------------------------------------------------|
A|---------------------------------------------------------------------------|
E|---------------------------------------------------------------------------|
Repeat whole first and second section, then above riff twice, then theres a bit without guitar, then

e|---------------------------------------------------------------------------|
B|-10-10-10-10-10-10-10-10-10-11-8-(x2)-11-11-11-11-11-11-11-11-11-10-8(x2)--|
G|---------------------------------------------------------------------------|
D|---------------------------------------------------------------------------|
A|---------------------------------------------------------------------------|
E|---------------------------------------------------------------------------|

e|---------------------------------------------------------------------------|
B|-13-13-13-13-13----------10-10-10-10-10------------------------------------|
G|-----------------10-(x2)----------------7--(x2)----------------------------|
D|---------------------------------------------------------------------------|
A|---------------------------------------------------------------------------|
E|---------------------------------------------------------------------------|

e|-13-13-13-13-13-13-13-13-13-13-13-10-10------------------------------------|
B|----------------------------------------11-11-11-11-11-11-11-11-10-8-(x2)--|
G|---------------------------------------------------------------------------|
D|---------------------------------------------------------------------------|
A|---------------------------------------------------------------------------|
E|---------------------------------------------------------------------------|
then kind of solo bit, something like (over main riff)
e|--13-12-11-12-13-12-10-----------------------------------------------------|
B|-----------------------11---(x2)-------------------------------------------|
G|---------------------------------------------------------------------------|
D|---------------------------------------------------------------------------|
A|---------------------------------------------------------------------------|
E|---------------------------------------------------------------------------|
meh, I think its accurate, Ive played it with the song.  theres a bit more at the end 
its more or less the same
Related for Souvenirs tab