Song name
# A B C D E F G H I J K L M N O P Q R S T U V W X Y Z

Gene Chandler - Duke Of Earl tab

I'm going to tab out whole song and also add some leads that happen in song.

Standard Tuning

Intro (over the duke, duke, duke, duke of earl lyrics)

e--1-1-1-1---5-5-5-5-------------------------|
b--1-1-1-1---6-6-6-6---3-3-3-----5-5-5-------|
g--2-2-2-2---7-7-7-7---3-3-3-----5-5-5-------|  (2x)
d--3-3-3-3---7-7-7-7---3-3-3-----5-5-5---0-2-|
a--3-3-3-3---5-5-5-5-3-1-1-1-0-1-3-3-3-3-----|
e--1-1-1-1-0---------------------------------|

Verse 1 (Use the intro riff)

As I walk through this world
Nothing can stop the duke of earl
And you, you are my girl
      Bb                 C
And no one can hurt you, oh no

e-----------|
b-----------|
g-----------|
d-----------|  (play this little riff going into bridge)
a--3-1------|
e------3----|

Bridge Riff

e-----------------------------------------------------------|
b---------------------------6~----------3~---------3~-------|
g------2~--------2~-------7----7------3----3----------3-----|
d----3----3----3----3------------7-----------3---3------3---|
a----------3----------3-5-----------1----------1------------|
e--1---------1----------------------------------------------|

e-------------------------------|
b------5~-----------------------|
g----5----5---------------------|
d-----------5-------------------|
a--3----------3-3-1-1-0-0-------|
e--------------------------3-3--|

Bridge lyrics w/Bridge Riff

Yes, I'm gonna love you
Come on let me hold you darling
Cause i'm the duke of earl yeah yeah yeah yeah

then here is the order for rest of song

Verse 2 (intro riff) (with little riff before bridge i tabbed above)
Bridge 2 (bridge riff)
Duke of earl singing part (intro riff)
Bridge 3 (bridge riff)
Outro (fade out with intro riff)

Notation guide

~-Let note ring and wiggle the note a bit

The Rocnracer rocking out tabs to you!!!!!!!
Tap to rate this tab
# A B C D E F G H I J K L M N O P Q R S T U V W X Y Z