Song name
# A B C D E F G H I J K L M N O P Q R S T U V W X Y Z

Gene - Where Are They Now tab

Where Are They Now? by Gene

Tabbed by SuperBeef (SuperBeefTabs@gmail.com)

This tab is my interpretation of others work, and is not for commercial use.  

Standard Tuning EADGBE


You said that I 

e|------------------------------------|
b|-1-3---------------------------3----|
G|-----0-2-------3-------3-----3---2--|
D|-------------0---3-2-3---0-3--------|
A|------------------------------------|
E|----------3-------------------------|

should look to the future

e|------------------------------------|
b|-1-3--------------------------------|
G|-----0-2----------------------2-----|
D|----------0-0-3-------3---------3---|
A|----------------3---3---3-0-3-------|
E|------------------0-----------------|

Repeat x4

i've seen it i'll stay here
I don't know why, i'm tied to the winter,can't find the time to leave



The smallest gentle gesture

e|------------------------------------|
b|-----2--------2------1-3-1-1-3------|
G|---3---3----3------0-----------0-2--|
D|-0--------2-------------------------|
A|----------------3-------------------|
E|------------------------------------|

keeps the enemy at bay

e|------------------------------------|
b|-------------------3-----1-3--------|
G|-----3-------3-------3-------0-2----|
D|---3---3---3-----3------------------|
A|------------------------------------|
E|-6-------5-----6--------------------|

All i needed was a word

e|------------------------------------|
b|-----2--------2------1-3-1-1-3------|
G|---3---3----3------0-----------0-2--|
D|-0--------2-------------------------|
A|----------------3-------------------|
E|------------------------------------|

where are they now?

e|-------------------------------------|
b|---------------------3-----1-3-------|
G|-----3-------3---------3-------0-2---|
D|---3---3---3---3---3-----------------|
A|---------6---------------------------|
E|-6---------------6-------------------|

The sky seems a little lower, 

e|-----0-------------------------------|
b|---1---1----1-3-------3--------3------|
G|-0--------0---------0---3----3---0-2--|
D|------------------0------------------|
A|-------------------------------------|
E|----------------3--------------------|

but for that a normal day

e|------------------------------0-------------|
b|----------------------------1---1---1-3-----|
G|---------------------2----0-------0-----0-2-|
D|-0-0-3-------3---------3--------------------|
A|-------3---3---3-0-3------------------------|
E|---------0----------------------------------|

Do i ask too much,

e|------------------------------------|
b|-----1-------0--------3-------3-----|
G|---2---2---2------------3---3---0-2-|
D|-2-------2---------3----------------|
A|----------------1-------------------|
E|------------------------------------|

where are they now?

e|-----0-------0-------0--------------|
b|---1---1---1---1---1---1---1-3------|
G|-0---------------0-------------0-2--|
D|---------3--------------------------|
A|------------------------------------|
E|------------------------------------|

Repeat

Chorus

e|---3----------------------|
b|-----3---3-0----6------6-5----|
G|-5------------7---7--7------|
D|-5-----5------7------7------|
A|-3-----5------5------5------|
E|-------3--------------------|


e|---3------------------------|
b|-----3---3-0----------------|
G|-5------------3--3---3--3---|
D|-5-----5------3------3------|
A|-3-----5------1------1------|
E|-------3--------------------|

e|---3------------5-----------|
b|-----3---3-0------6----6-5--|
G|-5------------7------7------|
D|-5-----5------7------7------|
A|-3-----5------5------5------|
E|-------3--------------------|

e|---3------------------------|
b|-----3---3-0----------------|
G|-5------------3--3---3--3---|
D|-5-----5------3------3------|
A|-3-----5------1------1------|
E|-------3--------------------|

Solo - Not 100% but sounds mostly right


e|---------------------------------------------------------------|
b|---------------------------------------------------------------|
G|--14--12--10--9--10--9--10--9----5s--7--5s--7--5h-7p-5-2-0-----|
D|---------------------------------------------------------------|
A|---------------------------------------------------------------|
E|---------------------------------------------------------------|
 


e|-------------------------------------------------------------------|
b|---------------------------------------------------15--18------15--|
G|--5s--7--14s--12--14s--10--5--7----10--12--14--17----------14------|
D|-------------------------------------------------------------------|
A|-------------------------------------------------------------------|
E|-------------------------------------------------------------------|


e|-----------------------------------------------------------------|
b|--15s--6-----------------------------------------13s--15--15s----|
G|----------10--9--10--9--5--5----7--10--10--9--9------------------|
D|-----------------------------------------------------------------|
A|-----------------------------------------------------------------|
E|-----------------------------------------------------------------|


e|-----------------------------------------------|
b|18--13s--15--15s--18---------------------------|
G|----------------------12--10--9--10--9--5s--7--|
D|-----------------------------------------------|
A|-----------------------------------------------|
E|-----------------------------------------------|
Tap to rate this tab
# A B C D E F G H I J K L M N O P Q R S T U V W X Y Z