Song name
# A B C D E F G H I J K L M N O P Q R S T U V W X Y Z

Genedefect - My Ready Eye tab

Artist: GeneDEFECT
Website: http://www.myspace.com/genedefect
Title: My ready eye
Album: GeneDEFECT - LP
Year: 2007
Tab author: Suif
Mail: metalstorm@hotmail.fr


Note: This is my first tab so be gentle with me.I'm the first to post a tab of this song 
i'm proud.I'm a beginner and I've tabbed that all by ear and with the official video of 
song which show some seconds of guitar playing ^^
This tab is not 100% accurate but it's near of it, (the solo is played by two guitar, so 
hope it's good.

Thanks ;)

Drop C tunning (CGCFAD)


Order to play:
 ___________________ ____
-| Riff 1 & Riff 2-|-|X6|
 ___________________ ____
-| Riff 3          |-|x1|
 ___________________ ____
-| Riff 4          |-|x1|
 ___________________ ____
-| Riff 1          |-|x2|
 ___________________ ____
-| Riff 1 & Riff 2 |-|X2|
 ___________________ ____
-| Riff 5          |-|x2|
 ___________________ ____
-| Riff 6          |-|x1|
 ___________________ ____
-| Riff 7 & Riff 8 |-|X2|
 ___________________ ____
-| Riff 9          |-|x2|
 ___________________ ____
-| Riff 10         |-|x1|
 ___________________ ____
-| Riff 1          |-|x1|
 ___________________ ____
-| Riff 1 & Riff 2 |-|X3|
 ___________________ ____
-| Riff 9          |-|x2|
 ___________________ ____
-| Riff 5          |-|x2|
 ___________________ ____
-| Riff 11         |-|x4|
 ___________________ ____
-| Riff 12         |-|x1|


Riff 1:

D|---------------------------|
A|---------------------------|
F|---------------------------|
C|--0-0-0-0-000-00-0-0-0-0---|
G|--0-0-0-0-000-00-0-0-0-0---|
C|--0 0 0 0 000 00 0 0 0 0---|
    * * * * *** ** * * * *

Riff 2:

D|-----------------------------------|
A|-----------------------------------|
F|-----------------------------------|
C|--------7---------6-------5--------|
G|--8-7-8---8-7-8-8-8-8-7-8---8-7-8--|
C|-----------------------------------|


Riff 3:

D|----------------------------------------------|
A|----------------------------------------------|
F|----------------------------------------------|
C|--0------10-------0-------101010101010777777--|
G|--0------10-------0-------101010101010777777--|
C|--0------10-------0-------101010101010777777--|

Riff 4:

D|--------------------------------------------------------|
A|--------------------------------------------------------|
F|--------------------------------------------------------|
C|--0000-----10101010-------0000------101010101010777777--|
G|--0000-----10101010-------0000------101010101010777777--|
C|--0000-----10101010-------0000------101010101010777777--|

Riff 5:

D|-----------------------------------------------------------|
A|-----------------------------------------------------------|
F|-----------------------------------------------------------|
C|--0-0-000-000--0-000-000--0-0-000-000----------------------|
G|--0-0-000-000--0-000-000--0-0-000-000----5\~55~7p5 8p5\4---|
C|--0-0-000-000--0-000-000--0-0-000-000----------------------|
    * * *** ***  * *** ***  * * *** ***

Riff 6:

D|---------------------------------------------------|
A|---------------------------------------------------|
F|-------9--10h12p10-10p9---12121212121212101010990--|
C|--0~-----------------------------------------------|
G|--0~-----------------------------------------------|
C|--0~-----------------------------------------------|

Riff 7: (Only "0" are PM)

D|--------------------------------------|       D|--------------------------------------|
A|--------------------------------------|       A|--------------------------------------|
F|---7---7---7---7---9---9-----7s9s7s9--|  or   F|----7---7---7---7---9---9---7s9s7s9---|
C|---7---7---7---7---9---9-----7s9s7s9--|       C|----0---0---0---0---0---0---0~ -------|
G|---5---5---5---5---7---7-----5s7s5s7--|       G|----0---0---0---0---0---0---0~ -------|
C|000-000-000-000-000-000-0000----------|       c|-0000000000000000000000000000~ -------|

Riff 8:

D|-------------------------------------|
A|-------------------------------------|
F|-------------------------------------|
C|-------------------------------------|
G|--0/333333333333333/555555555555555--|
C|-------------------------------------|

Riff9:

D|----------------------------------------|
A|----------------------------------------|
F|----------------------------------------|
C|--0-----10-----0-----10101010101077731--|
G|--0-----10-----0-----10101010101077731--|
C|--0-----10-----0-----10101010101077731--|

Riff 10:

D|---------------|
A|---------------|
F|---------------|
C|--0-0-000-0-0--|
G|--0-0-000-0-0--|
C|--0-0-000-0-0--|
    * * *** * *

Riff 11

D|-----------|
A|-----------|
F|-----------|
C|--0-0-0-0--|
G|--0-0-0-0--|
C|--0-0-0-0--|
    * * * *

Riff 12:

D|---------------|
A|---------------|
F|---------------|
C|--0-0-000-000--| (Very light PM)
G|--0-0-000-000--|
C|--0-0-000-000--|
    * * *** ***
Tap to rate this tab
 
# A B C D E F G H I J K L M N O P Q R S T U V W X Y Z