General Luna - Nandito tab

Nandito by General Luna

*I love this band, so I chose this song as my first tablature

Standard Tuning

Intro: Am - E x3, F G Am

V1:
Am     E   Am                E
   O Inay, ito ang aking buhay
Am                      E
Hanggang sa'king pag himlay
F   G  Am
tumitibay

V2:
Am          E   Am            E
  wag magtampo,iniintindi ko kayo
Am               E
wala nang mapagtanto
   F   G  Am
sa buhay ko
   F   G
sa buhay

Chorus:
C                    G                F
Di ko alam kung ba't tayo nalang ang nandito
sa buhay ko x2

(break)Verse Chords 

V3
Am      E  Am              E
   O itay, hindi ako mapalagay
Am                        E
sadya bang parang may sablay
    F   G  Am
ang buhay ko
    F   G
ang buhay

Chorus

Bridge:
D     
  Lahat may alam (wala kang alam)
Em
  Lahat may sagot (wala kang sagot)
F           F em Em F Em Em F
Kahit naman wala naman nagtatanong
D                 Em
  wala kang alam (wala kang alam)
F
wala kang sagot

Solo
* I only got audry's solo in. It comes a little after Caren's but when I watched 
them live, they start the same time.
e--------------------------------------------------|
B-----------------------8--------------------------|
G--------5--7--7p7--7s9----9-7-5--7p5--------------|
D---5h7-------------------------------7--5--5h7----|
A---0----------------------------------------------|
E--------------------------------------------------|

e---------------------------------------------------|
B------------------8--------------------------------|
G---7b-5-5h7--7s9-----9-7-5--7p5--------------------|
D--------------------------------7--5--5h7----------|
A---------------------------------------------------|
E---------------------------------------------------|

e-------------------x-5-5------|
B-------------------x-5-5------|
G-------------------x-5-5------|
D------------5-5h7--x-5-5------|
A-------5-7--------------------|
E---5-8------------------------|

Chorus

Outro
* Again, I only tabbed Audry's part, still figuring out carens

e-----------------------              ------------------------|
B-----------------------  do this a   ------------------------|
G-----------------------  couple of   ------------------------|
D---5--2----------------  times. then --5---2-----------------|
A---------5--3--5--3----   this >>>>> ----------3-------------|
E-----------------------              ------------------------|

Just Loop it towards the end:-)

Hope I got it right. I watched their live video over and over.

http://www.generalluna.com/web2/index.html
Tap to rate this tab
 
# A B C D E F G H I J K L M N O P Q R S T U V W X Y Z