Song name
# A B C D E F G H I J K L M N O P Q R S T U V W X Y Z

Genesis - Dance On A Volcano tab

----------------------------------------------------------------------------
                        Dance on a volcano-Genesis
----------------------------------------------------------------------------
   Hey I have been wanting to learn to play this tab forever, and when I looked for it,
wasnt there. So I sat down and did it in five minuetes and it turned out to be really
Its usually against my person to promote a non-gabriel genesis tab but this riff is 
Its just the main riff to the song...
Riffone, four times...    Keyboard plays... This is played before the guitar
e-5--8-----5---8-----------------------------1---4---1--4--------------------|
b--8---8-----8---8-----------------------------4--4----4--4------------------|
g----------------------------------------------------------------------------|
d----------------------------------------------------------------------------|
a----------------------------------------------------------------------------|
E----------------------------------------------------------------------------|
This is the second riff and main one...
e-6-5---------8----6-5---------8-----15-14----------17---15-14---------17---|
b-----6-6-4-8----------6-6-4-8-------------15-13-17------------15-13-17-----|
g---------------------------------------------------------------------------|
d---------------------------------------------------------------------------|
a---------------------------------------------------------------------------|
E---------------------------------------------------------------------------|

If you have heard the song you know how to put it together. The intro is a little bit
Thanks for reading, I hope it helped.
Tap to rate this tab
# A B C D E F G H I J K L M N O P Q R S T U V W X Y Z