Song name
# A B C D E F G H I J K L M N O P Q R S T U V W X Y Z

Genetikk - Sorry chords

Highlighted       Show chord diagrams
   Am                                F
e|---------------------------------|-------------------------1-------|
B|---1---1---1---1---1---1---1---1-|---1---1---1---1---1---1---1---0-|
G|-2---2---2---2---2---2---2---2---|-2---2---2---2---2---2-------2---|
D|-2-------------------------------|-3-------------------------------|
A|---------------------------------|---------------------------------|
E|---------------------------------|---------------------------------|

   C                                 E
e|-0-------0-------0-------0-------|-0-------0-------0-------0-------|
B|-----1-------1-------1-------1---|-----0-------0-------0-------0---|
G|---0---0---0---0---0---0---0---0-|---1---1---1---1---1---1---1---1-|
D|---------------------------------|---------------------------------|
A|-3-------3-------3-------3-------|-2-------2-------2-------2-------|
E|---------------------------------|---------------------------------|


[1. Verse: Karuzo]
Am                                          
Manchmal will ich weglaufen, wohin? Was weiß ich denn?
    F
Was wollt ihr von mir hören, meine Story, meine Geschichte?
C
Fickt euch! Mein leben geht euch alle 'nen Scheiß an
          E
Bevor ich mein Herz mit Euch teil' sterb ich verlassen und einsam, Mann
Am
 Was soll das bringen? Euch erzählen was mich nachts beschäftigt
      F
Damit euer scheiß Leben nicht so beschissen klingt, wie's in echt ist?
C
 Damit es perfekt ist und eure Plastikwelt steril bleibt?
     E
Euer Mitleid will ich noch nichtmal geschenkt, nein - Ihr tut mir Leid
        Am
Nur ihr checkt's nicht, ihr seid eingesperrt in den Komplexen
        F
Die euer Handeln bestimmen, die für euch denken und sprechen
         C
Denn ihr habt zwar Namen aber keine Identität
         E
Kein Facebook Account der Welt ersetzt die Realität
             Am
Man sagt die Augen, sie seien der Spiegel der Seele
           F 
Ich seh in eure und suche, doch finde nichts außer Leere
            C
Ihr seid verloren, wenn ihr nicht anfangt euch dagegen zu wehren
          E
Ihr müsst aufwachen, bevor es für euch alle zu spät ist!

(Hook: Karuzo) [x2]
Am
Sorry; ich weiß, ihr wollt alle meine Story
    F
Ihr wartet, dass es mein Leben auf Songs gibt
              C
Is mir scheiß egal was ihr erwartet, ich mach's nicht
          E
Aus purer Absicht, mich knacken - ihr schafft's nicht, ihr schaffts nicht


[2. Verse: Karuzo]
Am
 Ob ich Probleme hab? Weiß nich, habt ihr denn Auswege?
F
Nein? Dann könnt ihr vergessen, dass ich mich hier auf die Couch leg
C
Musik ist Therapie, wer hat sich diese Scheiße ausgedacht?
      E
Und warum sind Jimi, Kurt und Amy draufgegangen, sag's mir
Am
 Ihr wollt ein Stück von mir, Bullshit, man ihr kriegt gar nichts
         F
Ihr könnt puzzlen und raten, tiefer buddeln und graben
         C
Aber ihr werdet nix finden in meinem Hochsicherheitstrakt
        E
Es gibt keinen unter euch, der je mein Inneres knackt
         Am
Und wenn doch, dann ist die Frage ob er oder sie überlebt
         F
Denn der Abgrund vor dem ihr dann steht ist schwindelerregend
          C
Traust du dich bis an den Rand? Bis auf wenige Schritte?
          E
Oder einen Blick zu riskieren, oder herrunter zu springen
    Am
Na? Dacht ich's mir! Dann bitte quatsch mich nicht voll
         F
Ich weiß nämlich nicht, was dieser ganze Schwachsinn hier soll
            C
Es ist ganz einfach - ich leb mein Leben und ihr lebt eures
        E
Und ich scheiß drauf, ob von dem Track irgendjemand enttäucht ist


(Hook: Karuzo) [x4]
Am
Sorry; ich weiß, ihr wollt alle meine Story
    F
Ihr wartet, dass es mein Leben auf Songs gibt
              C
Is mir scheiß egal was ihr erwartet, ich mach's nicht
          E
Aus purer Absicht, mich knacken - ihr schafft's nicht, ihr schaffts nicht

Tap to rate this tab
 
# A B C D E F G H I J K L M N O P Q R S T U V W X Y Z