Song name
# A B C D E F G H I J K L M N O P Q R S T U V W X Y Z

Genji Buskers - Ayam Den Lapeh tab

e:----------------------|----------------------|
B:----9-11-7-9-11-9-7-9-|----9-11-7-6--8-6-4-6-|
G:--11------------------|--11------------------|
D:----------------------|----------------------|
A:----------------------|----------------------|
E:----------------------|----------------------|


E:------------------|-------4--7-7---------4--7-7--|
B:--5-7-5-4--4-6-2-4|--4-5-7----------4-5-7--------|
G:-7----------------|-5--------------5-------------|
D:------------------|------------------------------|
A:------------------|------------------------------|
E:------------------|------------------------------|
Tap to rate this tab
# A B C D E F G H I J K L M N O P Q R S T U V W X Y Z