Song name
# A B C D E F G H I J K L M N O P Q R S T U V W X Y Z

Gentlemans Dub Club - Fire tab

Band: Gentleman's Dub Club
Song: Fire
Album: Members Only EP

Standard tuning

Intro (all palm muted):
|--------------------------------------------|
|--------------------------------------------|
|--7--777778-5--555557-----------------------|
|----------------------8-7-5--5--7-----------|
|----------------------------------8-6-5--5--|
|--------------------------------------------|

Chords:
I think the same chords are played throughout
and I'm pretty sure these are the chords:
   Dm      Am
|--5---5---5---5---|
|--6---6---5---5---|
|--7---7---5---5---|
|--7---7---7---7---|
|--5---5---7---7---|
|----------5---5---|

I think this is right. if not its pretty close.
Tap to rate this tab
# A B C D E F G H I J K L M N O P Q R S T U V W X Y Z