Guitaretab - guitar tabs
Song name
# A B C D E F G H I J K L M N O P Q R S T U V W X Y Z

George Frideric Handel - Minuet tab

This is my first tab, and one of my favorite acustic peices. enjoy :]

| /  slide up
| \  slide down
| h  hammer-on
| p  pull-off
| ~  vibrato
| +  harmonic
| x  Mute note



Verse 1 (Play Twice)
e|-------------------------------------------------------------------
B|-------------------------------------------------------------------
G|-------2--------2--------2----2--------2------2----0------0------0-
D|---------3--------3-------------3--------3-----------3------3------
A|----5------5--------5-------------2--------2-----------1------1----
E|-------------------------------------------------------------------


-------------------|
-------------------|
-------5--------2h3| 
----2---------2----|
-3---------3-------|
-------------------|  



Chorus (Play Twice)
e|-------------------------------------------------------------------------|
B|-------------------------------------------------------------------------|
G|---------2---------2----------3--------3--------5--------3--------3-2p0--|
D|------3---------3----------2--------2--------3--------3--------2-------3-|
A|---5---------5----------3--------3--------1--------1--------0------------|
E|-------------------------------------------------------------------------|

The second time you play, play this ending..

e-------------------|
B---------------3/5-|
G--------3--2-------|
D-----2-------------|
A--0----------------|
E-------------------|


[ Tab from: http://www.guitaretab.com/g/george-frideric-handel/125428.html ]
Bridge (Play Twice)
e|-------8-----------10p8----------6-------------------|
B|-----6---6-------6------6------6---6-------8------6--|
G|---7-------7---7-------------7------7----6------7----|
D|-0-----------0-------------8-----------7------5------|
A|-----------------------------------------------------|
E|-----------------------------------------------------|



e|--------1--------------0-------------------------------------------------|
B|-------------------------------------------------------------------------|
G|-----2-----2--------0-----0------------5-------------0------0------------|
D|-3-3---------3--2-2----------2-------4---4--------2-------2--------------|
A|---------------------------------5-5-------5---3--------3----------------|
E|-------------------------------------------------------------------------|



e|----------------------------------------------1--------0-----------------|
B|-------------------------------------------------------------------------|
G|--------2------------7------------9---------2-------0--------------------|
D|------3---3--------5---5--------7---7-----3-------2----------------------|
A|--1-1-------1--3-3-------3--5-5-------5----------------------------------|
E|-------------------------------------------------------------------------|


e|----------------------------------------------1--------0-----1-----------|
B|-------------------------------------------------------------1-----------|
G|--------2------------7------------9---------2-------0--------3-----------|
D|------3---3--------5---5--------7---7-----3-------2----------3-----------|
A|--1-1-------1--3-3-------3--5-5-------5----------------------------------|
E|-------------------------------------------------------------------------|


I was kind of iffy about the chord at the end..but I'm pretty sure that's it.
Related for Minuet tab
Advertisement will be closed in 10 seconds