Song name
# A B C D E F G H I J K L M N O P Q R S T U V W X Y Z

George Frideric Handel - Sarabande tab

Sarabande - Haendel

I think, the rhythm is easy to follow.

Main and strong part x2
e-------------------------------------------------------------------0---------|
b----------------------------------------------------1---------3-3------2-2---|
g------0---------------2-2--3-0-0------------2--3-3--2--2-2-2--2-0------2-2---|
d-3-3--2-2-2-----------3-3--5-2-2------------4--5-5-----3-3-------------2-2---|
a-5-5----4-4--(1-0-----3-3----3-3--(3-1-0)------5-5-----5-5-------------------|
e-5-5----5-5-------3)---------------------------------------------------------|


e-----------------------------------------------------------------0-1-0-------|
b-------------------------------------------------1---------3-2-3---3-2---3-3-|
g---------------0-------------2-2--3-0-0--2--3-3-----2---2--1---3---2-0---2-2-|
d-(5-3-2)--3-3--2-2-2---------3-3--5-2-2--4--5-5-----3--------------------3-3-|
a----------5-5----4-4-(1-0----3-3----3-3-----5-3-----3------------------------|
e----------5-5----5-5------3)-------------------------------------------------|



Soft Part, only the melody
e-------------------------------------------0-------|
b-------------------------------1-------3-3---2-2---|
g------0------2-2-3-0-0--2-3-3----2-2-2-------------|
d-3-3----2-2----------------------------------------|
a---------------------------------------------------|
e---------------------------------------------------|


e--------------------------------------0-1-0--------|
b--------------------------1-----3-2-3-------3-3----|
g----0-----2-2-3-0-0-2-3-3---2-2--------------------|
d3-3---2-2------------------------------------------|
a---------------------------------------------------|
e---------------------------------------------------|


Then Main Part again two times.
The second time there is another violin line upper which follows the same melody.



On some versions, you end on:

e----------|
b----------|
g----------|
d--3-------|
a--5-------|
e--5-------|


If you see corrections, please comment.
beranger80@hotmail.com
Tap to rate this tab
# A B C D E F G H I J K L M N O P Q R S T U V W X Y Z