Song name
# A B C D E F G H I J K L M N O P Q R S T U V W X Y Z

George Nozuka - Such A Fool tab

-------------------------------------------------------------------------------
			     SUCH A FOOL - George Nozuka
-------------------------------------------------------------------------------
Tabbed by: bluescorpio, using Express Scribe
Email: one.young.guy+tab at gmail.com

Tuning: Standard

This is about 80% complete, I have spent a great amount of time to make sure the 4 main
are exactly as the CD Version.  The 4 bars below are played throughout the song in this
manner; notice the last two chords D/G and Gm/E are varied in each bar. The bridge may
be perfect yet, but i'm working on it.

1).
   D/Asus4             Cadd9       D              D/G            Gm/E
e|-------2h3p2---------------------------0------------------------------|
B|-----3-------3-------------3---------3------------------0-------------|
G|---0-----------0---------0---------2-----------------2------------2---|
D|-2---------------2-----2---------0----------------0-------------------|
A|---------------------3------------------------------------------------|
E|------------------------------------------------3--------------2------|
                              tap           tap

2).   e|-------2h3p2---------------------------0--------------------------------|
B|-----3-------3-------------3---------3----------------------------------------|
G|---0-----------0---------0---------2-----------------2------------2-----------|
D|-2---------------2-----2---------0----------------0-----0------0-----0--------|
A|---------------------3--------------------------------------------------------|
E|------------------------------------------------3------------2----------------|
                              tap           tap


3------------------------------------------------------------------------|
e|-------2h3p2---------------------------0-------------------------------|
B|-----3-------3-------------3---------3------------------0--------------|
G|---0-----------0---------0---------2-----------------2------------2----|
D|-2---------------2-----2---------0----------------0--------------------|
A|---------------------3-------------------------------------------------|
E|------------------------------------------------3--------------2-------|
                              tap           tap

4).   e|-------2h3p2---------------------------0---------------------------------|
B|-----3-------3-------------3---------3------------------0----------------------|
G|---0-----------0---------0---------2-----------------2-------------2-----------|
D|-2---------------2-----2---------0----------------0-------------0-----0--------|
A|---------------------3---------------------------------------------------------|
E|------------------------------------------------3-------------2----------------|
                              tap           tap

12 o'clock in the morning, i'm chilling with some friends...


   So let it go tonight...
e|-------3----------0------------2h3p2--------5---3-|
B|-----3-3----3---3------------3-------3------------|
G|---0---0------0------------0-----------0---(0)----|
D|-2-----2-----------------2------------------------|
A|------------3-------------------------------------|
E|--------------------------------------------------|
           tap        tap

(Bridge)
I let her in but only for a minute girl....

e|-2h3-----------|x2
B|-3----3--3-3-3-|
G|-0----0--0-0-2-|
D|-2----2--0-0-0-|
A|------3--2-----|
E|-----------3-2-|


| /  slide up
|   slide down
| h  hammer-on
| p  pull-off
| ~  vibrato
| +  harmonic
| x  Mute note
===============================================================================
Tap to rate this tab
 
# A B C D E F G H I J K L M N O P Q R S T U V W X Y Z