Song name
# A B C D E F G H I J K L M N O P Q R S T U V W X Y Z

George Straight - Amarillo By Morning tab

   Ok, this is the stuff on the violin. Sorry if there are mistakes. This is my first 
You can e-mail me at Danthekarateman2@comcast.net if you have questions.


 e - -5-7-5-2--0-------------17-19-17----17---------------17----]
 b - -------------3-0-3p0--------------19---19-17-15-12-15------]
 g - ---------------------2-------------------------------------]
 d - -----------------------------------------------------------]
 a - -----------------------------------------------------------]
 e - -----------------------------------------------------------]

    After 1st verse:

 e - -5s17-19-17----------------5-]  They took my saddle in Houston...
 b - ------------19-17-15-12-15---]
 g - -----------------------------]
 d - -----------------------------]
 a - -----------------------------]
 e - -----------------------------]

    After 2nd verse:

 e - -17-19-17 ---------------14-11-] Amarillo by Mornin'...
 b - ----------19-17-15-12-15-------]
 g - -------------------------------]
 d - -------------------------------]
 a - -------------------------------]
 e - -------------------------------]

    After 3rd verse:

e - 19-21-19-------------------------12-14-12-9-7-5-2-5-12-]
b - ---------21-19-17-14-17-14-12--------------------------]
g - -------------------------------------------------------]
d - -------------------------------------------------------]
a - -------------------------------------------------------]
e - -------------------------------------------------------]


e - -19-21-19------------19------------]
b - ----------21-19---------17-14-17---]
g - -----------------------------------]
Tap to rate this tab
# A B C D E F G H I J K L M N O P Q R S T U V W X Y Z