Song name
# A B C D E F G H I J K L M N O P Q R S T U V W X Y Z

George Thorogood - Who Do You Love tab

[UPDATED ON 11/04/2008]
(Corrected the slide-down part and added the part from 3:31)

The same chords all the time - E and A

Listen to the song a few times to learn the rythm.

slightly palm muted:
         E                               A  E
E|----------------------|-------------------------|
B|----------------------|-------------------------|
G|----------------------|----------------2--------|
D|--------2-2--2----2-2-|--------2-2-2---2--2-----|
A|--x--x--2-2--2----2-2-|--x--x--2-2-2------2-----|
E|--0--0--0-0--0----0-0-|--0--0--0-0-0------0-----|

After "...who do you love?..."
      E       A   E
E|-------------------|
B|-------------------|
G|--1--1--1--2-2--1--|
D|--2--2--2--2-2--2--|
A|--2--2--2-------2--|
E|--0--0--0-------0--|
   
Bridge
 
   A    E        A    E                                   E    A   E     
E|--5/7--7--7-7\5-5-5-9----------------------------------------------|
B|--7/9--9--9-9\7-7-7/9----------------------------------------------|
G|--7/9--9--9-9\7-7-7/9-----------------------------------1--1-x-2-1-|
D|------------------------11-11\10\9-\8\7\6\5\4\3-2-------2--2-x-2-2-|
A|------------------------12-12\11\10\9\8\7\6\5\4\3-------2--2-x---2-|
E|------------------------12-12\11\10\9\8\7\6\5\4\3-------0--0-----0-|

This little bit can be heared for the first time at around 00:58
E|-----------|
B|-----------|
G|-----------|
D|-----0---0-|
A|--0h2--2---|
E|-----------|

At about 01:53
E|---------------|
B|---------------|
G|-0h2--0--2-0---|
D|-------------2-|
A|---------------|
E|---------------|

Solo

E|-0-0-0-0-0-0-0-0-0-0-0-0-0-0-0-0-0-0-0-0-0-0-0-0-0-0-0-0-0-0-0-0-0-0-0-|
B|-0\3-3-3-3-3-3-3-3-3-3-3-3-3-3h4h5-3h4h5-3h4h5-3h4h5-3h4h5-3h4h5-3h4h5-|
G|-----------------------------------------------------------------------|
D|-----------------------------------------------------------------------|
A|-----------------------------------------------------------------------|
E|-----------------------------------------------------------------------|

E|-0-0-0-0-0-0-0-0-0-0-0-0-0-0-0-------------------------|
B|-0\3-3-3-3-3-3-3-3-3-3-3-3-3-3-------------------------|
G|------------------------------4--2-0-------------------|
D|---------------------------------------2------0---0--2-|
A|------------------------------------------0h2---2------|
E|-------------------------------------------------------|

3:31
E|-7-7-7-7-7-7-7--7--7----7-7-7-7-7--7--7--7--7----|
B|-9-9-9-9-9-7-10-10-10---9-9-9-9-10-10-10-10-10---|
G|-9-9-9-9-9-9-9--9--9----9-9-9-9-9--9--9--9--9----|
D|-------------------------------------------------|
A|-------------------------------------------------|
E|-------------------------------------------------|
...and so on. Listen to the song to get the correct rythm
B|-9-9-9-9-9-7-10-10-10--
G|-9-9-9-9-9-9-9--9--9---
D|------------------------
A|-----------------------
E|-----------------------
Tap to rate this tab
# A B C D E F G H I J K L M N O P Q R S T U V W X Y Z