Song name
# A B C D E F G H I J K L M N O P Q R S T U V W X Y Z

Gerard Lenorman - Michle tab

Highlighted       Show chord diagrams
 
-------------------------------------------------------------------------------
MICHÈLE -  Gerard Lenorman


Tabbed by:  PaulJohnny C.
	
Email:  jonyfree.c@gmail.com

Tuning: Drop D (DADGBe)
------------------------------

Intro:

Fmaj/D    G*   Gsus  G*   x2

Cmaj    Am    E+   Am     Bm/5+    C6(no5)


Verse:

Dm7*                     Dm6
Tu avais à peine quinze ans
       Dm7*                 Dm6
Tes cheveux portaient des rubans
      Cmaj/A     Am*
Tu habitais tout près
E+/A         Am*      Bm/5+  C6(no5)
Du Grand Palais


Dm7*               Dm6
Je t'appelais le matin
Dm7*                       Dm6
Et ensemble on prenait le train
Cm          Dm/5+  D#6(no5)  F
Pour aller,                  au lycée.


Dm7   
Michèle, assis près de toi

Moi j'attendais la récré
                 E
Pour aller au café
              Am
Boire un chocolat
   B/5-(no3)     Am       Bm/5+    C6(no5)
Et puis  t'embrasser  



Un jour tu as eu dix-sept ans
Tes cheveux volaient dans le vent
Et souvent tu chantais :
Oh ! Yesterday !
Les jeudis après-midi
On allait au cinéma gris
Voir les films, de Marilyn

Michèle, un soir en décembre
La neige tombait sur les toits
Nous étions toi et moi
Endormis ensemble
Pour la première fois.

Le temps a passé doucement
Et déchu le Prince Charmant
Qui t'offrait des voyages
Dans ses nuages
On m'a dit que tu t'es mariée
En avril au printemps dernier
Que tu vis, à Paris.

Michèle, c'est bien loin tout ca
Les rues, les cafés joyeux
Memes les trains de banlieue
Se moquent de toi, se moquent de moi 


Dm7
Michèle, c'est bien loin tout ca
Les rues, les cafés joyeux
                          E
Memes les trains de banlieue  
               Am     B/5-(no3)   Am   A5   Bm/5+    C6(no5)             
Se moquent de toi, se moquent de moi.... 


Dm7    E              Am
        Se moquent de moi !




Chords:

   Fmaj/D  G  Gsus4  E+  E+/A  Cmaj7  Cmaj7/A  Dm7  Dm7* Dm6  B/5-(no3)
e|-0-------3--3------7----7-----7-----7--------1----8----7----------------------|
B|-1-------3--3------9----9-----8-----8--------1----6----6-----0----------------|
G|-2-------4--5------9----9-----9-----9--------2----7----7-----4----------------|
D|-3-------0--0------10---10----10----10-------0----7----7-----3----------------|
A|-------------------7----0-----------0--------0----0----0-----2----------------|
D|-0-------5--5--------------------------------0----0----0----------------------|

  
   Bm/5+  C6(no5)  A5   E  F  Cm  Am  Am*  Dm/5+  D#6(no5)
e|----------------------0--1--3---0---5-----------------------------------------|
B|--0------1------------0--1--4---1---5----3-------4----------------------------|
G|--0------2-------2----1--2--5---2---5----3-------5----------------------------|
D|--0------2-------2----2--3--5---2---7----3-------5----------------------------|
A|--2------3-------0----2--3--3---0---0----5-------6----------------------------|
D|----------------------2--3----------------------------------------------------|




===============================================================================
Tap to rate this tab
# A B C D E F G H I J K L M N O P Q R S T U V W X Y Z