Song name
# A B C D E F G H I J K L M N O P Q R S T U V W X Y Z

Get Set Go - Ordinary World chords

Highlighted       Show chord diagrams
Song: Ordinary World
Album: Ordinary World
Artist: Get Set Go

D  C#  C

e|--------------------|
B|-3--5--3--1111------|
G|--------------------|
D|--------------------|
A|--------------------|
E|--------------------|

C  A#  A



D
Peter lost another job today

				      A
He showed up drunk and forty minutes late


It was his last mistake

D
Peter drank all through the day

			         A
Another drink to numb away the pain


But the day remained

	    D
Hey Hey Hey

		  A
Another ordinary day

	    D
Hey Hey Hey

		  A
Another ordinary day

		 G
In an ordinary world

		D		      A
With ordinary boys fucking ordinary girls

		  G
In an oridinary time

	      D			     A
So ordinary that we are losing our minds

		 G
So whatca gonna do

		     D
The choice is up to you



Mary got knocked up again

					A
She got drunk and slept with her best friend

D
Mary didn't know what to say

					    A
Because she knew that her best friend was gay


She fucked him anyway

	    D
Hey Hey Hey

		  A
Another ordinary day

	    D
Hey Hey Hey

		  A
Another ordinary day

		 G
In an ordinary world

		D		      A
With ordinary boys fucking ordinary girls

		  G
In an oridinary time

	      D			     A
So ordinary that we are losing our minds

		 G
So whatca gonna do

		     D
The choice is up to you


D  C#  C

e|--------------------|
B|-3--5--3--1111------|
G|--------------------|
D|--------------------|
A|--------------------|
E|--------------------|

C  A#  A


D  C#  C

e|--------------------|
B|-8--10--8--7777-----|
G|--------------------|
D|--------------------|
A|--------------------|
E|--------------------|

C  C  A


D


Peter climbed into his car

					 A
Filled up his tank and fled to foreign parts


With a broken heart

D
Mary is a single mom

					    A
She loves her son but amends the life she lost


She bears a heavy cross

	    D
Hey Hey Hey

		  A
Another ordinary day

	    D
Hey Hey Hey

		  A
Another ordinary day

		 G
In an ordinary world

		D		      A
With ordinary boys fucking ordinary girls

		  G
In an oridinary time

	      D			     A
So ordinary that we are losing our minds

		 G
So whatca gonna do

		     D
The choice is up to you


D  C#  C

e|--------------------|
B|-3--5--3--1111------|
G|--------------------|
D|--------------------|
A|--------------------|
E|--------------------|

C  A#  A


D  C#  C

e|--------------------|
B|-8--10--8--7777-----|
G|--------------------|
D|--------------------|
A|--------------------|
E|--------------------|

C  C  A


D
Tap to rate this tab
 
# A B C D E F G H I J K L M N O P Q R S T U V W X Y Z