Guitaretab - guitar tabs
Song name
# A B C D E F G H I J K L M N O P Q R S T U V W X Y Z

Ghost Of The Robot - Angel tab

Ghost of the robot angel
From the album Mad brilliant
Track: 5
Tabbed by Liam 
Email: guitar_rocker_47@hotmail.com
Tuning: half a step down

Erm I think this is the only actual guitar tab for this on the net, I was
playing around with chords and picking them out and got this  man I love
this song. Please rate this and comment on it, thank you guys.

Intro
E|-----3--------2--------0--------2---|-----3--------2--------0--------2---|
B|-------3--------3--------1--------3-|-------3--------3--------1--------3-|
G|---0---------2----------------2-----|---0---------2----------------2-----|
D|-----------0---------2------0-------|-----------0---------2------0-------|
A|-------------------3----------------|-------------------3----------------|
E|-3----------------------------------|-3----------------------------------|

Verse 1
E|-----3--------2--------0--------2---|-----3--------2--------0--------2---|
B|-------3--------3--------1--------3-|-------3--------3--------1--------3-|
G|---0---------2----------------2-----|---0---------2----------------2-----|
D|-----------0---------2------0-------|-----------0---------2------0-------|
A|-------------------3----------------|-------------------3----------------|
E|-3----------------------------------|-3----------------------------------|

E|-----3--------2--------0--------2---|-----3--------2--------0--------2---|
B|-------3--------3--------1--------3-|-------3--------3--------1--------3-|
G|---0---------2----------------2-----|---0---------2----------------2-----|
D|-----------0---------2------0-------|-----------0---------2------0-------|
A|-------------------3----------------|-------------------3----------------|
E|-3----------------------------------|-3----------------------------------|

E|-----3--------2--------0--------2---|-----3--------2------0--0---2--2---|
B|-------3--------3--------1--------3-|-------3--------3----1--1---3--3---|
G|---0---------2----------------2-----|---0---------2-------0--0---2--2---|
D|-----------0---------2------0-------|-----------0---------2--2---0--0---|
A|-------------------3----------------|---------------------3--3----------|
E|-3----------------------------------|-3---------------------------------|

Chorus 1
E|------------3~-3-3-33-------------3~-3-3-33-------------3~-3-3-33-|
B|-1~-1-1-11--3~-3-3-33--1~-1-1-11--3~-3-3-33--1~-1-1-11--3~-3-3-33-|
G|-0~-0-0-00--0~-0-0-00--0~-0-0-00--0~-0-0-00--0~-0-0-00--0~-0-0-00-|
D|-2~-2-2-22--0~-0-0-00--2~-2-2-22--0~-0-0-00--2~-2-2-22--0~-0-0-00-|
A|-3~-3-3-33--2~-2-2-22--3~-3-3-33--2~-2-2-22--3~-3-3-33--2~-2-2-22-|
E|------------3~-3-3-33-------------3~-3-3-33-------------3~-3-3-33-|
[ Tab from: http://www.guitaretab.com/g/ghost-of-the-robot/139599.html ]
E|----------------------------------|
B|-1~---1-1-11---1~-1-1-11--1~-1111-|
G|-0~---0-0-00---0~-0-0-00--0~-0000-|
D|-2~---2-2-22---2~-2-2-22--2~-2222-|
A|-3~---3-3-33---3~-3-3-33--3~-3333-|
E|----------------------------------|

Verse 2
E|-----3--------2--------0--------2---|-----3--------2--------0--------2---|
B|-------3--------3--------1--------3-|-------3--------3--------1--------3-|
G|---0---------2----------------2-----|---0---------2----------------2-----|
D|-----------0---------2------0-------|-----------0---------2------0-------|
A|-------------------3----------------|-------------------3----------------|
E|-3----------------------------------|-3----------------------------------|

E|-----3--------2--------0--------2---|-----3--------2--------0--------2---|
B|-------3--------3--------1--------3-|-------3--------3--------1--------3-|
G|---0---------2----------------2-----|---0---------2----------------2-----|
D|-----------0---------2------0-------|-----------0---------2------0-------|
A|-------------------3----------------|-------------------3----------------|
E|-3----------------------------------|-3----------------------------------|

E|-----3--------2--------0--------2---|-----3--------2------0--0---2--2---|
B|-------3--------3--------1--------3-|-------3--------3----1--1---3--3---|
G|---0---------2----------------2-----|---0---------2-------0--0---2--2---|
D|-----------0---------2------0-------|-----------0---------2--2---0--0---|
A|-------------------3----------------|---------------------3--3----------|
E|-3----------------------------------|-3---------------------------------|

Chorus 2
E|------------3~-3-3-33-------------3~-3-3-33-------------3~-3-3-33-|
B|-1~-1-1-11--3~-3-3-33--1~-1-1-11--3~-3-3-33--1~-1-1-11--3~-3-3-33-|
G|-0~-0-0-00--0~-0-0-00--0~-0-0-00--0~-0-0-00--0~-0-0-00--0~-0-0-00-|
D|-2~-2-2-22--0~-0-0-00--2~-2-2-22--0~-0-0-00--2~-2-2-22--0~-0-0-00-|
A|-3~-3-3-33--2~-2-2-22--3~-3-3-33--2~-2-2-22--3~-3-3-33--2~-2-2-22-|
E|------------3~-3-3-33-------------3~-3-3-33-------------3~-3-3-33-|

E|----------------------------------|
B|-1~---1-1-11---1~-1-1-11--1~-1111-|
G|-0~---0-0-00---0~-0-0-00--0~-0000-|
D|-2~---2-2-22---2~-2-2-22--2~-2222-|
A|-3~---3-3-33---3~-3-3-33--3~-3333-|
E|----------------------------------|

Outro
E|-----3--------2--------0--------2---|-----3--------2--------0--------2---|
B|-------3--------3--------1--------3-|-------3--------3--------1--------3-|
G|---0---------2----------------2-----|---0---------2----------------2-----|
D|-----------0---------2------0-------|-----------0---------2------0-------|
A|-------------------3----------------|-------------------3----------------|
E|-3----------------------------------|-3----------------------------------|

E|-----3--------2--------0----------2--3~~--|
B|-------3--------3--------1-----------3~~--|
G|---0---------2-----------------2-----0~~--|
D|-----------0---------2------0--------0~~--|
A|-------------------3-----------------2~~--|
E|-3-----------------------------------3~~--|
Related for Angel tab