Song name
# A B C D E F G H I J K L M N O P Q R S T U V W X Y Z

Ghosts - Stay The Night tab

Five o'clock Heroes
Stay the night.
Bend to the Breaks

This tab is pretty good cause i saw them live yesterday and 
i stood right in front of them so i could see most of the chords.
but there are a few faults but its still good.




Verse:

The 1st Guitar plays the chords.

the 2nd guitar plays this tab until the drums kick in.

2nd guitar plays This palm muted
  Bm
e|-2----------------2--------------------------|
b|-3----------------5--------------------------|
g|-4----------------4--------------------------|
d|-4----------------4--------------------------|
a|-2-about 10 times-2-about 2 times------------|
E|---------------------------------------------|

Then
  E
e|-0----------------0--------------------------|
b|-0----------------0--------------------------|
g|-1----------------2--------------------------|
d|-2----------------2--------------------------|
a|-2-about 10 times-2-aubout 2 times-----------|
E|-0----------------0--------------------------|


Bm
Her love is keen, It stays the course

E
She seems to know my pressure points

Bm
When it hurts, it's understood

E
She plays a part in the things I do


(drum and the bass kicks in)

Now the 2nd guitar plays the same chords but for the E use this one:
e|--7-|
b|--9-|
g|--9-|
d|--9-|
a|--7-|
E|----|

Bm
But many times I reach for her

E
She comes alive with every word

Bm
Many nights I sit alone

E
And what I feel, what I want, She won't let it show.



Chorus:

G             D              A
Oh won't you stay the night? Woah

A
We'll be happy together

G             D              A
Oh won't you stay the night? Woah

A
We'll be happy together

G             D              A
Oh won't you stay the night? Woah

A
Don't wanna be alone



Solo:

1st guitar plays the chord of the verse   Bm and E

2nd guitar plays the solo
e|-------------------------------------------|
b|-------------------------------------------|
g|-------------------------------------------|
d|-------------------------------------------|
a|-2--2/4-4/5-5/7---7/5-5/4-4/2--------------|
E|-------------------------------------------|


e|-------------------------------------------|
b|-------------------------------------------|
g|-------------------------------------------|
d|-------------------------------------------|
a|-----7/9-9/12-12/11---5/4-4/2--------------|
E|-(7)---------------------------------------|



verse:
(exactly the same as the first verse)

But all the time I crave for her
Not only love, it's a jealous trust
I try to change my attitude
I lose control in the things I do
Many times I reach for her
I feel the life in every word
And many times I sit alone
What I need, what I want, she already knows


Chorus:

Oh won't you stay the night? Woah
We'll be happy together
Oh won't you stay the night? Woah
We'll be happy together
Oh won't you stay the night? Woah
Don't wanna be alone



Bridge:

1st guitar:
Bm     E    (2X)

2nd guitar:  (iam not sure about this because he plays some riffs too but i couldn't figure them out)
Bm     E-->
           e|--7-|
           b|--9-|
           g|--9-|
           d|--9-| 
           a|--7-|
           E|----|



Solo:

1st
1st guitar plays the chords   Bm and E
2nd guitar
e|--------------------------------------------------0---------------|
b|-12-12-12-12-12-12-12-12/14-14/9-9-9-9/10/9-9-9---0---------------|
g|--------------------------------------------------0-<-let ring----|
d|------------------------------------------------------------------|
a|------------------------------------------------------------------|
E|------------------------------------------------------------------|


e|-------------------------------------------------------------|
b|-12-12-12-12-12-12-12-12/14-14/9-9-9-9-9-9/7-7/5-5/3-3/2-2p0-|
g|-------------------------------------------------------------|
d|-------------------------------------------------------------|
a|-------------------------------------------------------------|
E|-------------------------------------------------------------|



Chorus:

Oh won't you stay the night? Woah
We'll be happy together
Oh won't you stay the night? Woah
We'll be happy together
Oh won't you stay the night? Woah
Don't wanna be alone.

Ends on Bm


That's it, have fun playing.
krien



Tap to rate this tab
# A B C D E F G H I J K L M N O P Q R S T U V W X Y Z