Guitaretab - guitar tabs
Song name
# A B C D E F G H I J K L M N O P Q R S T U V W X Y Z

Gil Ofarim - If You Only Knew tab

I'm not sure if this is 100 percent sure, I just found this out 10 minutes ago so if 
are any problems, email me at futureceleb-aka-IJAB@hotmail.com :)


e|--------------6--6--6--7--9--7-------11--11--11--9--9--9--7--7--7--6--4--2---|
B|-----4--7--4-----------------------------------------------------------------|
G|-----------------------------------------------------------------------------|
D|-----------------------------------------------------------------------------|
A|-----------------------------------------------------------------------------|
E|-----------------------------------------------------------------------------|
[ Tab from: http://www.guitaretab.com/g/gil-ofarim/170447.html ]
e|-----------------------------------------------------------------------------|
B|-----4--4--4--2--0--2--4--2--0-------0--2--4--4--5--4--2--0--4--0------------|
G|-------------------------------------------------------------------1---------|
D|-----------------------------------------------------------------------------|
A|-----------------------------------------------------------------------------|
E|-----------------------------------------------------------------------------|

e|-----------------------------------------------------------------------------|
B|-----2--4--5--7--9--11--12--11--9--7--5--4--2--0-----------------------------|
G|-----------------------------------------------------------------------------|
D|-----------------------------------------------------------------------------|
A|-----------------------------------------------------------------------------|
E|-----------------------------------------------------------------------------|
Related for If You Only Knew tab
If You Only Knew chords by Gil Ofarim