Song name
# A B C D E F G H I J K L M N O P Q R S T U V W X Y Z

Gilbert O'sullivan - Christmas Song tab

Flyleaf "Christmas Song"

Standard Tuning - Capo 5

VERSE CHORDS          CHORUS CHORDS

  Em    G     D         Em    C     G     ?
E|--0--|--3--|--0--|  E|--0--|--0--|--3--|--3--|
B|--0--|--3--|--3--|  B|--0--|--1--|--3--|--3--|
G|--0--|--0--|--2--|  G|--0--|--0--|--0--|--0--|
D|--2--|--0--|--0--|  D|--2--|--2--|--0--|--0--|
A|--2--|--2--|--0--|  A|--2--|--3--|--2--|--0--|
E|--0--|--3--|--2--|  E|--0--|--0--|--3--|--2--|

VERSE 1 & 2

  Em                         Em
E|--------------------------|--------------------------|
B|--------------------------|--------------------------|
G|--------------0-----------|--------------0-----------|
D|--------2--------2-----2--|--------2--------2-----0--|
A|-----2-----2--------2-----|-----2-----2--------2-----|
E|--0-----------------------|--0-----------------------|

  G                          D
E|--------------------------|--------------------------|
B|--------------------------|--------------------------|
G|--------------0-----------|--------------2-----------|
D|--------0--------0-----0--|--------0--------0-----0--|
A|-----2-----2--------2-----|-----0-----0--------0-----|
E|--3-----------------------|--2-----------------------|

                                          Em C G ?
She's to bring into this world the Son of God

CHORUS

Em      C                G            ?
God's angels sound their trumpets and blow their horns
Em          C            G               ?
Tonight the long awaited Savior is to be born
Em           C              G           ?
The goodness bound by Satan it has been torn
Em        C               G          ?   (start picking verse 2)
With this baby's precious brow ready for thorns

VERSE 3

Tonight He is born...

  Em                         Em
E|--------------------------|--------------------------|
B|--------------------------|--------------------------|
G|--------------0-----------|---------------0----------|
D|--------2--------2-----2--|--------2---------2-------|
A|-----2-----2--------2-----|-----2-----2------------2-|
E|--0-----------------------|--0------------------0----|

  G                          D
E|--------------------------|--------------------------|
B|--------------------------|--------------3-----------|
G|--------------0-----------|-----------------2-----0--|
D|--------0--------0--------|--------0-----------0-----|
A|-----2-----2-----------0--|-----0-----0--------------|
E|--3-----------------3-----|--2-----------------------|

This is my first tab. I usually just play everything by ear but a few people have asked
for this tab. If you have any comments or questions you can send an e-mail to mandolinmonster@yahoo.com

Thanks!

sarahdanae
Tap to rate this tab
# A B C D E F G H I J K L M N O P Q R S T U V W X Y Z