Song name
# A B C D E F G H I J K L M N O P Q R S T U V W X Y Z

Giles Corey - Blackest Bile chords

Highlighted       Show chord diagrams
-------------------------------------------------------------------------------
			     Giles Corey - Blackest Bile
-------------------------------------------------------------------------------
Tabbed by: Trelt
Email: greggatrelt@gmail.com

Tuning: EADGBe

This should be something like 90% correct. Theres a few places where its hard to hear 
the chords but the majority of this should be fairly accurate

=====Chords=====

Eb       11-11-13-13-13-X-|
Bb7      6-6-8-6-8-6------|
Db       9-11-11-10-9-9---|
Bbsus2   6-6-8-8-6-6------|
Bb5      6-8-8-X-X-X------|

=====Intro======

Eb Bb7 Db Bbsus2

================

Eb
all around me

Bb7
in the air hangs a wreath

Db                         (9, 8, 6 on E)
of blackest bile, and smoke

Bbsus2
that I can see

Eb
I open up my heart

Bb7
and let it all in

Db
and it kills all my love

Bbsus2
and hope for everyone

=====Guitar riff=====

e|---------------------------------------------------------------------------|
B|--9--9-9--9-9\6--6-6--6-6-6--9--9-9--9-9\6--6-6--6-6-6--9--9-9--9-9\6--6-6-|
G|---------------------------------------------------------------------------|
D|---------------------------------------------------------------------------|
A|---------------------------------------------------------------------------|
E|---------------------------------------------------------------------------|

e|---------------------------------------------------------------------------|
B|-6-6-6--9--9-9--9-9--11--11-11--9--9-9-------------------------------------|
G|---------------------------------------------------------------------------|
D|---------------------------------------------------------------------------|
A|---------------------------------------------------------------------------|
E|---------------------------------------------------------------------------|

=====================

(not too confident about the accuracy of this section, take it with a grain of salt)

         Bb5       Bbsus2 Db    Bb5
and it hasn't been easy on you,

Bb5   Bbsus2   Db          Bb5
I know that more than most.

Bb5 Bbsus2    Db      Bb5
I am born to be alone,

Bb5  Bbsus2     Db           Bb7
I am just some lonely ghost

======interlude======

Eb Bb7 Db Bbsus2

=====================

Eb
all around us

Bb7
hangs an air of darkest doom,

Db
and it flows out my lungs

Bbsus2
and slowly fills the room

Eb
I open up my heart

Bb7
and stick my fingers in,

Db
but you will never want

Bbsus2
what I have to give

         Bb5       Bbsus2 Db    Bb5
and it hasn't been easy on you,

Bb5   Bbsus2   Db          Bb5
I know that more than most.

Bb5 Bbsus2    Db      Bb5
I am born to be alone,

Bb5  Bbsus2     Db           Bb7
I am just some lonely ghost

Bb7  Bbsus2 Bb7 (not sure about this part)
ghost

************************************

| /   slide up
| \   slide down
| h   hammer-on
| p   pull-off
| ~   vibrato
| +   harmonic
| x   Mute note
| b   Bend
| pb  Pre-bend
| br  Bend release
| pbr Pre-bend release
| brb Bend release bend

************************************
Tap to rate this tab
# A B C D E F G H I J K L M N O P Q R S T U V W X Y Z