Song name
# A B C D E F G H I J K L M N O P Q R S T U V W X Y Z

Gillan - Are You Sure tab

Artist: Gillan
Song: Are You Sure?
Album: Glory Road
Year: 1980
Tabbed By: M.B.MetalTabber

O.K. The guitar part is harder than the bass line, so brace yourselves.

############
#Intro/Riff#
############

e|----------------------------|
B|-------------5--------------|
G|-------2-4/6---6\4-2--4-2---|
D|-4-2-4--------------------4-|
A|----------------------------|
E|----------------------------|

e|----------------------------|
B|-------------5--------------|
G|-------2-4/6---6\4-2--------|
D|-4-2-4----------------4--2--|
A|----------------------2--0--|
E|----------------------------|

#######
#Verse#
#######

  PM Throughout
e|---------------------------| X8
B|---------------------------|   This is the bass line played quietly
G|---------------------------|   on guitar, but it will sound just
D|---------------------------|   fine with only the bass playing this 
A|-2-h-4--4-4-4--2--4--4-4-4-|   and the guitar string dampening
E|-0-h-2--2-2-2--0--2--2-2-2-|   (See alternate verse)

e|-------------------------------|
B|--------------10---------------|  This is just the riff
G|-------7-9/11----11\9-7--9-7---|  but played in 5th position
D|-9-7-9-----------------------9-|  
A|-------------------------------|
E|-------------------------------|

e|-------------------------------|
B|--------------10---------------|
G|-------7-9/11----11\9-7--------|
D|-9-7-9-------------------9--7--|
A|-------------------------7--5--|
E|-------------------------------|

 PM Throughout
e|---------------------------| X8
B|---------------------------|
G|---------------------------|
D|---------------------------|
A|-2-h-4--4-4-4--2--4--4-4-4-|
E|-0-h-2--2-2-2--0--2--2-2-2-|

#################
#Alternate Verse#
#################

e|-x--x--x-x-x--x--x--x-x-x-| X8
B|-x--x--x-x-x--x--x--x-x-x-|
G|-x--x--x-x-x--x--x--x-x-x-|   
D|-x--x--x-x-x--x--x--x-x-x-|   
A|-x--x--x-x-x--x--x--x-x-x-|   
E|-x--x--x-x-x--x--x--x-x-x-|   

e|-------------------------------|
B|--------------10---------------|  
G|-------7-9/11----11\9-7--9-7---|  
D|-9-7-9-----------------------9-|  
A|-------------------------------|
E|-------------------------------|

e|-------------------------------|
B|--------------10---------------|
G|-------7-9/11----11\9-7--------|
D|-9-7-9-------------------9--7--|
A|-------------------------7--5--|
E|-------------------------------|

e|-x--x--x-x-x--x--x--x-x-x-| X8
B|-x--x--x-x-x--x--x--x-x-x-|
G|-x--x--x-x-x--x--x--x-x-x-|   
D|-x--x--x-x-x--x--x--x-x-x-|   
A|-x--x--x-x-x--x--x--x-x-x-|   
E|-x--x--x-x-x--x--x--x-x-x-|   

########
#Chorus#
########

e|----------------------------|  This section is a simple octaves idea
B|----------------------------|
G|-11--9-11--12--11-9--11-----|
D|-x---x-x---x---x--x--x---9--|
A|-9---7-9---10--9--7--9---x--|
E|-------------------------7--|

e|---------------------7-------|  This is the hardest part of the
B|---------------------10-(12)-|  chorus, switching from octaves to
G|-11--9-11--12--11-9----------|  a unison bend. Bend up slowly until
D|-x---x-x---x---x--x----------|  the two pitches of note match up
A|-9---7-9---10--9--7----------|
E|-----------------------------|

e|----------------------------|
B|----------------------------|
G|-11--9-11--12--11-9--11-----|
D|-x---x-x---x---x--x--x---9--|
A|-9---7-9---10--9--7--9---x--|
E|-------------------------7--|

e|-----------------------------|
B|-----------------------------|
G|-11--9-11--12--11-9--14--12--|
D|-x---x-x---x---x--x--x---x---|
A|-9---7-9---10--9--7--12--10--|
E|-----------------------------|

Key:

h   = hammer-on
x   = string dampening
pm  = palm mute
(n) = bend to fret number (n)
/   = slide up
\   = slide down

This is a fairly challenging and fairly fast song, so it will require a lot
of practice to get it right. Thanks for looking and enjoy.
Tap to rate this tab
 
# A B C D E F G H I J K L M N O P Q R S T U V W X Y Z