Song name
# A B C D E F G H I J K L M N O P Q R S T U V W X Y Z

Girls Names - Notion tab

Chords: Am Dm Am Dm Am Dm C Em

E|--------------------------------------------|
B|--------------5--6--6--5h6p5----------------|
G|-----5--7--5------------------7h9p7--5h7p5--|
D|--7-----------------------------------------|
A|--------------------------------------------|
E|--------------------------------------------|

E|--------------------------------------------|
B|--------------5--8--8--6h8p6--5h6p5---------|
G|-----5--7--5-------------------------7h9p7--|
D|--7-----------------------------------------|
A|--------------------------------------------|
E|--------------------------------------------|

E|--------------------------------------------|
B|--------------5--6--6--5h6p5----------------|
G|-----5--7--5------------------7h9p7--5h7p5--|
D|--7-----------------------------------------|
A|--------------------------------------------|
E|--------------------------------------------|

E|-----------------------8--7--5-----------|
B|-----5--6--5--6--8--8-----------8--6--5--|
G|--5--------------------------------------|
D|-----------------------------------------|
A|-----------------------------------------|
E|-----------------------------------------|
Tap to rate this tab
 
# A B C D E F G H I J K L M N O P Q R S T U V W X Y Z