Song name
# A B C D E F G H I J K L M N O P Q R S T U V W X Y Z

Girls - Lust For Life tab

                       -GIRLS-

                    -LUST FOR LIFE-

  Lust For Life  (acoustic version)http://www.youtube.com/watch?v=qjObIB9gQZw

   It is not perfect but sounds quite good.

   CAPO 5

   Oh I wish I had a boyfriend
   I wish I had a loving man in my life
   I wish I had a father
   And maybe then I woulda turned out right

   But now I'm just crazy
   and totally mad
   Yeah Im just crazy
   im fucked in the head

   And maybe if I really try with all of my heart
   Then I could make a brand new start in love with you


             Until here the 2nd Guitar doesnt play anything.Then

                        G       Em
        I wish I had a sun tan
                       D                   Dmaj7
        I wish I had a pizza and bottle of wine
                        G        Em
        I wish I had beach house
                        D              Dmaj7
        And we could make a big fire every night
                          G     Em          D      Dmaj7
        Instead I'm just crazy and totally mad
                       G   Em                       D     Dmaj7
        Yeah Im just crazy      and fucked in the head

      At 1:15 plays:(you will hear it better at 1:52 it is the same thing)
                                D    A   Bm   A

 E]-----------------------------2----0--------------------0-0---0-----------|
 B]-------------------------------3----2---2/3-----2------3-3----3--3-3-----|
 G]---------------------------------2----2-----4-----2----0-0--4---4---4/7*-|
 D]------------2-2/4--2-0---0--------------------4-----2--------------------|
 A]-1/2-5-2---------------2-------------------------------------------------|
 E]---------5---------------------------------------------------------------|


 E]--6----5-----6----5-------]
 B]----8----8--8--8----8-8---]
 G]7*----7----------7------7-]
 D]--------------------------]
 A]--------------------------]
 E]--------------------------]


    G  Em  D  Dmaj7  E--------2-------------5--5--5--------------|
                     B--2-3-55----------------7--7----7--5/3-3---|
                     G-------------------------------------------|
                     D------------------------------7------------|


                     E--------2----------------------------------|
                     B--2-3-55----------3p2----------------------|
                     G----------------------4p2--4-2---2-4-------|
                     D-------------------------------4-----------|

                     E--------2-2--------5--5---5---5---5---5---5--5-----|
                     B--2-3-55-------4/7--7---7---7---7---7---7---7--7---|
                     G------------------------------------------ --------|

     1:52


                              D    A   Bm   A

 E]-----------------------------2----0--------------------0-0---0-----------|
 B]-------------------------------3----2---2/3-----2------3-3----3--3-3-----|
 G]---------------------------------2----2-----4-----2----0-0--4---4---4/7*-|
 D]------------2-2/4--2-0---0--------------------4-----2--------------------|
 A]-1/2-5-2---------------2-------------------------------------------------|
 E]---------5---------------------------------------------------------------|


 E]--6----5-----6----5-------]
 B]----8----8--8--8----8-8---]
 G]7*----7----------7------7-]
 D]--------------------------]
 A]--------------------------]
 E]--------------------------]


  Final Arpeggio:


 E]-2-2------0--------0-------0------------0-------2----------------|
 B]-3--3-------3--------3-------3---------3--3-----3----------------|
 G]-2---2---0---0----0---0---0----0-----0-----0----2----------------|
 D]-0----0-0------0-0-----0-0------0--0---------0--0----------------|
 A]-0-----3--------2-------1---------1-------------0----------------|
 E]-0----------------------------------------------0----------------|


  END
Tap to rate this tab
# A B C D E F G H I J K L M N O P Q R S T U V W X Y Z