Song name
# A B C D E F G H I J K L M N O P Q R S T U V W X Y Z

Glass Tiger - My Town tab

MY TOWN 
From: Glass Tiger

A major scale, normal tuning
Presented by yours truly Boumar55, 
“for the love of music”

This song starts by the chorus. Strum chord by chord while singing slowly.

(Introduction chorus)
A                   D
Bring the wind to carry me over
Fm#                Bm
Lead me home to my town
 A                    D
Tell me when the breeze is blowing
 Bm                   A
Taking me home, to my town

(Introduction solo) Rhythm guitar A chord moderate rock beat;

e|--5----5----5----7--5----7--5-----7--5------------|
B|----5----5----5-------5--------5-----------7---5--|
G|----------------------------------------7---------|
D|--------------------------------------------------|
A|--------------------------------------------------|
E|--------------------------------------------------|
 
Moderate rock beat

(verse1)


 A                               
When I think of you Scotia
         D                              A
There's a love that just bleeds in my heart
                          Fm#                      
In my childhood days we went our different ways
        Bm                    A
But you knew that we'd never part
          Bm                         Fm#                                  
Now I'm all alone and you're calling me home
   D
You knew our love could never die
      Bm
And through my roving eyes always led me astray
     D
Now I'm coming back home Scotia don't walk away


A                   D
Bring the wind to carry me over
Fm#                 Bm
Lead me home to my town
 A                   D
Tell me when the breeze is blowing
Bm               D     A
Taking me home, to my town
 
e|--5----5----5----7--5----7--5-----7--5------------|
B|----5----5----5-------5--------5-----------7---5--|
G|----------------------------------------7---------|
D|--------------------------------------------------|
A|--------------------------------------------------|
E|--------------------------------------------------|
 
 
(verse2)

 A                                     
So when I think of you Scotia
 D                            A
There's a magic that fills the air
                       Fm#
We're the "Downtown boys" making all that noise
         Bm                       A
Oh! We lived like we just don't care
       Bm                           Fm#
So we drank our fill for king and country
      D
Yeah! Till the last soldier fell!
  Bm
Burlington Bertie you're in my heart forever
 D
I want to drown in the stories you tell


A                   D
Bring the wind to carry me over
Fm#                Bm
Lead me home to my town
 A                 D
Tell me when the breeze is blowing
 Bm                    A
Taking me home, to my town
 
Oooooooooooooohhh to my town


Fm#
You made me all I can ever be
D
If I should fall you love will
Rescue me 


e|--5----5----5----7--5----7--5-----7--5------------|
B|----5----5----5-------5--------5-----------7---5--|
G|----------------------------------------7---------|
D|--------------------------------------------------|
A|--------------------------------------------------|
E|--------------------------------------------------|
 
 A                    D
Bring the wind to carry me over
Fm#                 Bm
Lead me home to my town
 A                    D
Tell me when the breeze is blowing
 Bm              D      A
Taking me home, to my town
 
(to finish, repeat chorus 4 times with music and end 3 times without music)

Tap to rate this tab
# A B C D E F G H I J K L M N O P Q R S T U V W X Y Z