Song name
# A B C D E F G H I J K L M N O P Q R S T U V W X Y Z

Glassjaw - Secret Song tab

Song   - (Secret Song)
Album  - Everything You Ever Wanted To Know About Silence
Tuning - DADGBE
Tabbed by David Diuguid (aka bmskate/DEFreak13)

***Set your left/right margins to 1/2 an inch (.5) & move margin thingy on the on the ruler all the way to 
right if your opening thisin a word processor (Word, WordPad, etc.)


pm... = palm mute
s     = slide
/\    = hammer on/off
<#>   = harmonic
(#)   = don't pick the note; slide down/up to that # or start at that # (relative, not approximate)


(Guitar Tab Arranged For Piano)
(0:00)					(0:13)
|--------0---5---0-----0---1-0-----|-------0---5---0-----1-0---------------------|
|------3-----------------------1---|-----3-------------------1-1--------0--1-----|
|----2-----2---2-----2---2-------2-|---2-----2---2-----2-------------0-------0-2-|
|----------------------------------|---------------------------------------------|
|-0--------------------------------|------------------------------------2--3---0-|
|------------------3---------------|-5---------------------------3---5-------5---|


(0:28)					(0:41)
|-------0---5---0-----0---1-0-----|-------0---5---0-----0---1-0-------|
|-----3-----------------------1---|-----3-----------------------1-1---|
|---2-----2---2-----2---2-------2-|---2-----2---2-----2---2-----------|
|---------------------------------|-----------------------------------|
|---------------------------------|-0---------------3-------1-------0-|
|-0---------------3---------------|---------5-------------------------|


(0:56) (1:19)        (1:07) (1:29)
|-0---1-0-----------|-0-0---1-0-----------------------|
|---1-----1---------|-----1-----0-------1-0-1-0-1-0---|
|-------------------|---------------------------------|
|-----3-------------|-------------0---0-------------3-|
|-0----------3----3-|-0-------------------------3---3-|
|---------3-----3---|-----------5---5---------------3-|


(1:43)         (2:06)           (2:24)
|-8----10-8---|---8----10-8----|-0---1-0---|
|---10--------|-----10------10-|---1-----1-|
|------9------|--------9-------|-----------|
|-7-----------|-7--------------|-----3-----|
|-----------8-|----------------|-0---------|
|-------------|----------------|---------3-|
Tap to rate this tab
# A B C D E F G H I J K L M N O P Q R S T U V W X Y Z