Song name
# A B C D E F G H I J K L M N O P Q R S T U V W X Y Z

Glen Hansard And Marketa Irglova - If You Want Me tab

I'm a Chinese guy and I love this song,so I figure it out,hope you like it.

the finger part:

--------------------------------------------|
-10-------10-------10--10-------10-------10-|
----11-------11-----------11-------11-------|
-------11-------11-----------11-------11----|
--------------------------------------------|
--------------------------------------------|


--------------------------------------------------|
----12-------12-------12--12-------12-------12----|
-------11-------11-----------11-------11----------|
-11-------11-------11-----------11-------11-------|
--------------------------------------------------|
--------------------------------------------------|


--------------------------------------|
---9------9------9--9------9------9---|
-----10-----10--------10-----10-------|
-9------9------9---------9------9-----|
--------------------------------------|
--------------------------------------|


--------------------------------------------|
-10-------10-------10--10-------10-------10-|
----11-------11-----------11-------11-------|
-------11-------11-----------11-------11----|
--------------------------------------------|
--------------------------------------------|
Tap to rate this tab
 
# A B C D E F G H I J K L M N O P Q R S T U V W X Y Z