Song name
# A B C D E F G H I J K L M N O P Q R S T U V W X Y Z

Glenn Frey - The One You Love tab

hey this is the sax part in the intro its easy to play i sound it out
but ear
                 hb means half bend
e--0-3-5-7hb-3-0--------0-3-5-7hb-3-0-3-3-5-7----|
b-3-------------3-----3--------------------------|
g------------------------------------------------|
d------------------------------------------------|
a------------------------------------------------|
e------------------------------------------------|
                                            do this on brige
e--0-3-5-7hb-3-0-----0-3-5-7hb-3-0-3-3---3~   -----3--3---|
b-3--------------3--3--------------------3~   ------3--3--|
g----------------------------------------0~   ----------0-|
d----------------------------------------0~   ------------|
a----------------------------------------2~   ------------|
e----------------------------------------3~   ------------|
Tap to rate this tab
# A B C D E F G H I J K L M N O P Q R S T U V W X Y Z