Song name
# A B C D E F G H I J K L M N O P Q R S T U V W X Y Z

Glenn Kaiser And Darrell Mansfield - Shaky Ground tab

Shaky Ground by Glenn Kaiser/Darrell Mansfield

I thought I'd been livin' in the light of day
I thought I'd been redeemed
I prayed my prayers but I went my way
Livin' just like I had been

Chorus:
Standin', standin' on shaky ground

He'd gone to the church all of his life
He'd heard what the preacher said
But the life he lived did him no good
The truth simply filled his head

Chorus:
Standin', standin' on shaky ground

Instrumental verse

Chorus:
Standin', standin' on shaky ground (x2)

I thought I'd been livin' in the light of day
I thought I'd been redeemed
I prayed my prayers but I went my way
Livin' just like I had been

Chorus:
Standin', standin' on shaky ground (x2)


Intro, breaks, outro (3rd & 4th lines) & Verses (All 4 lines)
(Rhythm: Triplet feel)
e -------------------------------------------------------------------------------------|
B -----3----3----3----3----3----3----3----3----3----3----3---------3----3-----3--------|
G -----2----2----2----2----2----2----2----2----2----2----2---------0----0-----2--------|
D --0-------------------0---------3bp0------0------------------------------0-----------|
A -------3----0----3---------3---------3---------3----0----0h3p0----------------0h3p0--|
E ---------------------------------------------------------------3----1----------------|

e -------------------------------------------------------------------------------------|
B -----3----3----3----3----3----3----3----3----3----3----3---------3----3-----3--------|
G -----2----2----2----2----2----2----2----2----2----2----2---------0----0-----2--------|
D --0-------------------0---------3bp0------0------------------------------0-----------|
A -------3----0----3---------3---------3---------3----0----0h3p0----------------0h3p0--|
E ---------------------------------------------------------------3----1----------------|


e ---------------------------------------------------------------------------------------|
B -----3----3----3----3----3----3----3----3----3----3----3---------3----3-----3----------|
G -----2----2----2----2----2----2----2----2----2----2----2---------0----0-----2----------|
D --0-------------------0---------3bp0------0--------------------3----2-----0------------|
A -------3----0----3---------3---------3---------3----0----0h3p0----------------0h3p0----|
E ---------------------------------------------------------------------------------------|

e -------------------------------------------------------------------------------------|
B -----3----3----3----3----3----3----3----3----3----3----3---------3----3-----3----3---|
G -----2----2----2----2----2----2----2----2----2----2----2---------0----0-----2----2---|
D --0-------------------0---------3bp0------0------------------------------0----0------|
A -------3----0----3---------3---------3---------3----0----0h3p0-----------------------|
E ---------------------------------------------------------------3----1----------------|

Chorus:
e --3--3----3----3----3----3----3----3----3-3--3----3----3----3----3----3-3--3-3--3---|
B --3--3----3----3----3----3----3----3----3-3--3----3----3----3----3----3-3--3-3--3---|
G --0--0----0----0----0----0----0----0----0-0--0----0----0----0----0----0-0--0-0--0---|
D --0---------------------------------------0-----------------------------0----0------|
A --2---------------------------------------2-----------------------------2----2------|
E --3--------------------------------------0/3----------------------------3----3------|
Tap to rate this tab
 
# A B C D E F G H I J K L M N O P Q R S T U V W X Y Z