Song name
# A B C D E F G H I J K L M N O P Q R S T U V W X Y Z

Gloc 9 - Lando tab

hahahaha! just had fun doing this... i don't expect anything great to happen to this 
just rate kung nagkamali kau at napunta kau sa tab na toh...

hi sa mahal na mahal kong si Hosea Olga Baltazar...

:) mahal na mahal po kita!


Intro: (rain falling...)

Chorus:

Guitar 1: bahala kau mg-strum...
e|--0-0-0-0---0-0-0-0---3-3-3-3---0-0-0-0---|
B|--1-1-1-1---1-1-1-1---3-3-3-3---1-1-1-1---|
G|--2-2-2-2---0-0-0-0---0-0-0-0---2-2-2-2---|
D|--2-2-2-2---2-2-2-2---0-0-0-0---2-2-2-2---|
A|--0-0-0-0---3-3-3-3---2-2-2-2---0-0-0-0---|
E|----------------------3-3-3-3-------------|
Guitar 2: yung plucking... pakinggan nyo..
e|----------0--------------0--------------------------------------------|
B|------------1--------------1----------------0----------------1-0------|
G|------2-------2--------0-----0---0------0-----0---0------2---------2--|
D|----2---2-------2----2---------2------0---0-----0------2---2-----2----|
A|--0----------------3---------------------------------0----------------|
E|------------------------------------3---------------------------------|
do this twice...

Guitar 1:
e|--3-3-3-3--1-1-1-1--0-0-0-0--0-0-0-0---|
B|--3-3-3-3--3-3-3-3--1-1-1-1--1-1-1-1---|
G|--0-0-0-0--2-2-2-2--2-2-2-2--2-2-2-2---|
D|--0-0-0-0--0-0-0-0--2-2-2-2--2-2-2-2---|
A|--2-2-2-2-----------0-0-0-0--0-0-0-0---|
E|--3-3-3-3------------------------------|
Guitar 2:
e|--------3----------------5----------------0---------------0--------|
B|------0---0---0------------6----------------1---------------1------|
G|----0-------0--------7-------7--------2-------2-------2-------2----|
D|-------------------7---7-------7----2---2-------2---2---2-------2--|
A|-----------------5----------------0---------------0----------------|
E|--3----------------------------------------------------------------|

then,
Guitar 1:
e|---3-3-3-3---0-0-0-0---0-0-0-0----|
B|---3-3-3-3---0-0-0-0---1-1-1-1----|
G|---0-0-0-0---0-0-0-0---2-2-2-2----|
D|---0-0-0-0---2-2-2-2---2-2-2-2----|
A|---2-2-2-2---2-2-2-2---0-0-0-0----|
E|---3-3-3-3---0-0-0-0--------------|
Guitar 2:
e|---------------------------------------|
B|---------0-------------0---------------|
G|-------0---0---------0---0-------2~----|
D|-----0-------0-----0-------0-----2~----|
A|------------------------------0--0~----|
E|---3------------0----------------------|

Verse 1:
uhmm... i dunno the lyrics... here are the chords:
Am - G (many times) - F - Em

(Repeat Chorus)

Before entering Verse 2:

Guitar 2: distorted
e|----------------------------|
B|----------------------------|
G|--7s9-7-5-7p5---5-----------|
D|--------------7---7-5-------|
A|----------------------(8)---|
E|----------------------------|

Verse 2:
chords na lang po ulit: Am - G (many times) - F - Em

(Repeat Chorus)

after chorus, the riff above repeats...

Verse 3:
same chords as previous verses...

some guitar riffs like this enter...
Guitar 2:
e|------------------------------------------|
B|------------------------------------------|
G|------------------------------------------|
D|--------------7--9--10--9~~~--------------|
A|------------------------------------------|
E|------------------------------------------|
lumubog na ang araw...

next:
Guitar 2:
e|----------------------------------|
B|--10~~~~~--10--12--13--12~~~------|
G|----------------------------------|
D|----------------------------------|
A|----------------------------------|
E|----------------------------------|
di ko naabutang buhay...

Guitar 2: di ko na masundan yung lyrics... kasabay to ng mga rap...
e|--------------15-17~--15-------------------------------------------|
B|--15~--/17~--------------15~--15-13h15p13p12--13~--13-15-17-15~~~--|
G|-------------------------------------------------------------------|
D|-------------------------------------------------------------------|
A|-------------------------------------------------------------------|
E|-------------------------------------------------------------------|
(cont'd)
e|-------------------------------15--17~~~~~----|
B|--12-----------------------15~----------------|
G|-----12-14~---14-16-17-16~--------------------|
D|----------------------------------------------|
A|----------------------------------------------|
E|----------------------------------------------|

(then Repeat Chorus)

End there... Please Rate naman po! hehehe! Mabuhay ka gloc9... V-Fresh!

textmate needed or chatmate: 09176143864, email (YM): jk_ventolero@yahoo.com
Tap to rate this tab
 
# A B C D E F G H I J K L M N O P Q R S T U V W X Y Z