Song name
# A B C D E F G H I J K L M N O P Q R S T U V W X Y Z

Glow - Mr Brown tab

GLOW - MR BROWN

Intro:

In a little town lives a Mr. Brown

Rythm Guitar:

G F# F E
C G Am7 D

Solo Guitar on C G (Am7) D:

E|----3---3--5--|
H|--5---3-------|
G|--------------|
D|--------------|
A|--------------|
E|--------------|



Verse 1: (Playing Power Chords)

G         F#          F                 E
He saw a lady and his heart was beating fast
G             F#             F                 E
And then just accidently her scarf fell on the ground
C            H             A#              A
Too blind to see he didn't get up from his ass
G             F#             F           E
He missed the only chance he ever really had



Chorus:
G           D       e        H
In a little town lives a Mr. Brown
C      G      Am7 D
He's a decent man
G              D      e               H
Monday time to work - Sunday time for church
C       G     Am7 D
He does what he can
   G                 D     e            H
To stand in the last row - never let it go
C       G    Am7 D
Only to feel safe
G          D        e              H
Hello Mr. Brown - Come out of your town
      C         Am7            G
It's easier when you just act brave



Verse 2: (Playing Power Chords)

G         F#               F               E
Yes Mr. Brown just doesn't look as if he's rich
G              F#                     F            E
`Cause all the money he earns goes directly in the bank
C            H             A#              A
Some people say that Mr. Brown must be bewitched
G            F#                      F              E
Uh sometimes happyness results from very different things



-> Chorus



Solo:
    G               F#              F                  E
E|--------------------------------------------------------|
H|--8-8-8-8-8-8-8-8-7-7-7---------------------------------|
G|------------------------7-7-7-7-9-10-10-10-10-10-9-7-9--|
D|--------------------------------------------------------|
A|--------------------------------------------------------|
E|--------------------------------------------------------|

    G           F#          F              E
E|-------------------------/8-8-8-8-8-7-------|
H|--/8-8-8---8-/10-10-10----------------10-8--|
G|---------7-------------7--------------------|
D|--------------------------------------------|
A|--------------------------------------------|
E|--------------------------------------------|

     C                 H         A#                  A
E|--/12-12-12-12-10----10-------------------------------|
H|------------------13----8-8-10-11-11-11-11-11-10-8----|
G|---------------------------------------------------7--|
D|------------------------------------------------------|
A|------------------------------------------------------|
E|------------------------------------------------------|

    G                 F#                F                E
E|-----------------------------------------------------------|
H|--10/12-12-12-10-8--10/12-12-12-10-8--10/12-12-12-10-8-12--|
G|-----------------------------------------------------------|
D|-----------------------------------------------------------|
A|-----------------------------------------------------------|
E|-----------------------------------------------------------|



-> Chorus



Outro:
          C       Am7           G
3 x It's easier when you just act brave
Tap to rate this tab
 
# A B C D E F G H I J K L M N O P Q R S T U V W X Y Z