Song name
# A B C D E F G H I J K L M N O P Q R S T U V W X Y Z

Gnarkill - I Got Erection tab

===========================================================
	Artist: Gnarkill
	  Song: I Got Erection
	 Album: GNARKILL (2006)
===========================================================

Tabbed: TheMutts
Email: andrew.frampton@us.army.mil

================================

\=slide down
/=slide up






Tuning: Standard


INTRO.....
|------------------------------------|---------------------------------------------|
|------------------------------------|o-------------------------------------------o|
|------------------------------------|---------------------------------------------|
|---------4-4-4/5\4--2-2-2-2-2-2-2---|----2-2-/7-7\4-4-4--2-2-4/5\4-2-2-2-2-2-2-2--|
|---------4-4-4/5\4--2-2-2-2-2-2-2---|o---2-2-/7-7\4-4-4--2-2-4/5\4-2-2-2-2-2-2-2-o|
|--19\----2-2-2/3\2--0-0-0-0-0-0-0---|----0-0-/5-5\2-2-2--0-0-2/3\2-0-0-0-0-0-0-0--|



VERSE.....
|---------------------------------------------------------------------------|
|o-------------1--1-------------------3--1------------------1--1-----------o|
|------------2-------2--------------2------2--------------2-------2---------|
|----2---2-2----------------2---2-2---------------2---2-2-----------2-------|
|o-------------------------------------------------------------------------o|
|---------------------------------------------------------------------------|


CHORUS.....
same exact thing as the intro.



Thats the whole song in all its 1 minute 57 second glory. Enjoy.




for more info: http://en.wikipedia.org/wiki/Gnarkill
Tap to rate this tab
# A B C D E F G H I J K L M N O P Q R S T U V W X Y Z