Song name
# A B C D E F G H I J K L M N O P Q R S T U V W X Y Z

Go-betweens - Karen tab

----------------------------------------------------------------------------
			   KAREN - Go-Betweens
----------------------------------------------------------------------------

Tabbed by:Jungle551
Email:matty551@hotmail.com

Tuning:Standard- EADGBe

extremely easy song to play just this simple progression.

e|-------------------------------------------------------------------------|
B|-------------------------------------------------------------------------|
G|-------------------------------------------------------------------------|
D|------9------9-----7----7----9----9----7------7-----9--------------------|
A|-----7-----7-----5----5----7----7-----5----5------7-------0-7-9-7-5-7-7--|
E|-------------------------------------------------------------------------|
and when approaching the chorus:
e|------------------------------------|
B|------------------------------------|
G|------------------------------------|
D|-----5-5-5-5-5-5-5-5-7-7-7-7-7-7-7--|
A|----3-3-3-3-3-3-3-3-5-5-5-5-5-5-5---|
E|------------------------------------|
Tap to rate this tab
# A B C D E F G H I J K L M N O P Q R S T U V W X Y Z