Song name
# A B C D E F G H I J K L M N O P Q R S T U V W X Y Z

Go Radio - Stay Gone chords

Highlighted       Show chord diagrams
-------------------------------------------------------------------------------
		              Stay Gone - Go Radio
-------------------------------------------------------------------------------
Tabbed by: Sean Hummer
Email: allstar21369@hotmail.com
Website: www.myspace.com/nomeansnocorey


I really like this song. Jason Lancaster is an incredible musician.


Tuning: Standard


Chords Used-

   E       G#     C#m    Asus2    E5     Emaj7   C#m7    Bsus4    Am
|--0--| |--4--| |--4--| |--0--| |--0--| |--0--| |--0--| |--0--| |--0--|
|--0--| |--4--| |--5--| |--0--| |--0--| |--0--| |--0--| |--0--| |--1--|
|--1--| |--5--| |--6--| |--2--| |--9--| |--x--| |--6--| |--4--| |--2--|
|--2--| |--6--| |--6--| |--2--| |--9--| |--9--| |--6--| |--4--| |--2--|
|--2--| |--6--| |--4--| |--0--| |--7--| |--6--| |--4--| |--2--| |--0--|
|--0--| |--4--| |--x--| |--x--| |--x--| |--x--| |--x--| |--x--| |--x--|


Intro-

     E     G#        C#m       Asus2


	 E5    Emaj7     C#m7      Bsus4       Asus2     Am

	 
	 
Verse-

              E                   G#
And just in case, you're not just in time,
            C#m                        Asus2
And I don't ever make it out of here alive.
              E                       G#
You'll know I tried, for the rest of my life,
           C#m            Asus2
to make it up to you.
             E               G#
If they're alright, then I'm insane,
                C#m                       Asus2
To ever want to walk through all of this again.

    E5                  Emaj7    C#m7        Bsus4       Asus2    Am
So what's a couple of bottles of wine between me and the fog?




Chorus-

         C#m              Asus2             E
You can assume that I am here, and on my own.
         C#m              Asus2             E               Bsus4
You can assume I figured out the road too short to walk alone,
       Asus2           Bsus4    Cmaj7-5 C#m7 Bsus4 Asus2
And I can't do it by myself, you know I won't.
                    Asus2        Bsus4
She said, "You're better off in New York, stay gone."

              E5      Emaj7     C#m7      Bsus4       Asus2

              E5      Emaj7     C#m7      Bsus4       Asus2     Am
I don't want to stay gone.




Verse-

              E                   G#
And just in case, you're not just in time,
            C#m                        Asus2
Know I was never really over this or fine.
           E                           G#
I was content to spend the rest of all my life
                C#m                Asus2
To take a final breath for you.
            E                   G#
To leave a memory of drinking and desire,
       C#m                             Asus2
A storyboard of pictures to depict the fire.

                 E5            Emaj7     C#m7            Bsus4    Asus2
Could there have been a better motion to claim, a better heart soaked in shame?




Chorus-

         C#m              Asus2             E
You can assume that I am here, and on my own.
         C#m              Asus2             E               Bsus4
You can assume I figured out the road too short to walk alone,
       Asus2           Bsus4    Cmaj7-5 C#m7 Bsus4 Asus2
And I can't do it by myself, you know I won't.
                    Asus2        Bsus4
She said, "You're better off in Boston, stay gone."

              E5      Emaj7     C#m7      Bsus4       Asus2

              E5      Emaj7     C#m7      Bsus4       Asus2     Am
Oh but I don't want to stay gone too long.




Bridge- (He barely hits the notes here and also has people talking loudly
over him)

e|----------------------------------------|
B|----------------------------------------|
G|-------------9~-------------------------|
D|-------------9~-------------------2~----|
A|-------------7~-------------------0~----|
E|----------------------------------------|
  And just in case, you found out in time,

e|-------------------------------------------------|
B|-------------------------------------------------|
G|-------------------------------------------------|
D|----------4~-----------------------------4~------|
A|----------2~-----------------------------3~------|
E|-------------------------------------------------|
  I've been out here all alone and I've been blind.
  
e|----------------------------------------------------------------|
B|----------------------------------------------------------------|
G|----------------------------------------------------------------|
D|-----2~--------------------------2~---------------------4~------|
A|-----2~--------------------------0~---------------------2~------|
E|-----0~---------------------------------------------------------|
  I've thrown together a couple of songs, maybe you'd sing along.




Chorus/Outro-

        C#m              Asus2             E
You can assume that I am here, and on my own.
         C#m              Asus2             E               Bsus4
You can assume I figured out the road too short to walk alone,
       Asus2           Bsus4    Cmaj7-5 C#m7 Bsus4 Asus2
And I can't do it by myself, you know I won't.
         Asus2  		     Bsus4            Cmaj7-5 C#m7 Bsus4 Asus2
She said, "You're better off, you're better off, stay gone."
           Asus2              Bsus4     Cmaj7-5 C#m7 Bsus4 Asus2
She said, "Don't come back to Florida Banks, stay gone."
                Asus2            Bsus4
Said, "We don't need you back in Florida, stay gone."

              E5      Emaj7     C#m7      Bsus4       Asus2

              E5      Emaj7     C#m7      Bsus4       Asus2     E
Stay gone.




| PM palm mute
| /  slide up
| \  slide down
| h  hammer-on
| p  pull-off
| ~  let ring
| b  bend
| *  substitute
| x  mute note
| +  harmonic

===============================================================================
Tap to rate this tab
# A B C D E F G H I J K L M N O P Q R S T U V W X Y Z