Song name
# A B C D E F G H I J K L M N O P Q R S T U V W X Y Z

Goatlord - Acid Orgy tab

Tuning (D Tuning 1/4 Step Higher)        pm=Palm Mute
D             *=Stop ringing note
A
F
C
G
D

Intro + Verses Riff
D|-----------|-------------|
A|-----------|-------------|
F|-----------|-------------|
C|-----------|-------------|
G|-2----6----|-5--4--1--2--|
D|-0----4----|-3--2--3--0--|
               pm pm pm pm 
Chorus Riff
D|-----------|-------------|
A|-----------|-------------|
F|-----------|-------------|
C|-----------|-------------|
G|-2----6----|*------------|
D|-0----4----|*------------|
Alternative Riff 1
D|-----------|-------------|
A|-----------|-------------|
F|-----------|-------------|
C|-----------|-------------|
G|-2----6----|-7-----3-----|
D|-0----4----|-5-----1-----|
Alternative Riff 2
D|-----------|-------------|
A|-----------|-------------|
F|-----------|-------------|
C|-----------|-------------|
G|-2----6----|-5-4-*--4-3-*|
D|-0----4----|-3-2-*--2-1-*|
Alternative Riff 3
D|----------------|----------------|
A|----------------|----------------|
F|----------------|----------------|
C|----------------|----------------|
G|-----3------5-4-|-----3------5-4-|
D|-00001--00003-2-|-00001--00003-2-|
 pm----   ----      ----   ----
Outro
D|-----------------|----------|
A|-----------------|----------|
F|-----------------|----------|
C|-----------------|----------|
G|-2-*-2-*-2-*-2-*-|-22222222-|
D|-0-*-0-*-0-*-0-*-|-00000000-|

http://www.metal-archives.com/bands/Goatlord/4230
Tap to rate this tab
 
# A B C D E F G H I J K L M N O P Q R S T U V W X Y Z