Guitaretab - guitar tabs
Song name
# A B C D E F G H I J K L M N O P Q R S T U V W X Y Z

Gob - Scotty Doesnt Know tab

The real version off of Eurotrip
99% correct, I think.


e-----------------------------------------------------------------------|
B-----------------------------------------------------------------------|
G-----------------------------------------------------------------------|
D------5-5-4-4-5-5-------5-5-4-4-5-5------5-5-4-4-5-5--7-7--5-5-4-4-5-5-|
A-------------------------------------33--------------------------------|
E-3-3---------------5-5-------------------------------------------------|
[ Tab from: http://www.guitaretab.com/g/gob/132241.html ]
That's basically it. Use a good sound with distortion or something like that.
Just keep on repeating it, and it will sound awesome.
Here's another version that has a higher tone.

e-------------------------------------------------------------------------|
B------8-8-7-7-8-8-------8-8-7-7-8-8------8-8-7-7-8-8--10-10--8-8-7-7-8-8-|
G------------------------------------5-5----------------------------------|
D-5-5---------------7-7---------------------------------------------------|
A-------------------------------------------------------------------------|
E-------------------------------------------------------------------------|

I prefer the second one over the first one, but I guess which ever one fits
your style of music. If you suggest that I change it or have any comments
than e-mail me at Shwifty55@hotmail.com.
Related for Scotty Doesnt Know tab