Song name
# A B C D E F G H I J K L M N O P Q R S T U V W X Y Z

Gob - La Song chords

Highlighted       Show chord diagrams
Gob
LA Song
FU EP
2002
Submitted by: paramore_fans@yahoo.com

Key: G#, B

Tuning: Standard EADGBe

Chords used:
G# -   466544
C# -   x46664
G#m -  466444
E -    022100
B -    x24442
C#m -  x46654
A -    x02220
F# -   244322
B/Eb - x698xx


Intro: G#--C#-- x4


Verse 1:
B                    F#
Maybe I could find a way 
     G#m               E
I've gotta make it to LA
     B
I'm slipping in and 
            F#
out of your mind now
G#m                      E
I don't wanna do it that way


Chorus 1:
           B/Eb
I'm always pushing you 
         E
down and drag you around
  B           C#m     A
I turn into a jackass when 
you're not around
    B/Eb
I'm feeling you out 
E
nailing you down
    B              C#m
You always give me something 
   A       E          A E
to wrap my hand around


Verse 2:
  B                      F#
I made a list of rules today
    G#m                E
I'm never gonna be the same
  B                         F#
I put you in the back of my mind
         G#m
When you keep me 
               E
outta trouble ahead


Chorus 2:
             B/Eb
I'm tired of pushing you 
       E
down I drag you around
  B              C#m
I fall into this trap I 
      A      E
could easily get around
    B/Eb
I'm breaking it down
    E
but where are you now?
  B
I finally learned my 
C#m       A          E
lesson to change my style


Bridge:
F#     G#m      E
Needed piece of mind
  F#      G#m      E
I think I see this time
  F#      G#m     E
I break into your life
  F#      G#m     E
I break into your life
I break into your life
                  B/Eb E
I break into your life


Guitar Solo:
    B/Eb         E           B      C#m    A      E
e|---------|------------|---------|-----|------|------|
B|-4-4-----|-5-4--------|-4-----4-|-----|------|------|
G|-----6-4-|-----6-4--6-|----6----|-6-4-|-6--4-|----4-|
D|---------|------------|---------|-----|------|-6----|
A|---------|------------|---------|-----|------|------|
E|---------|------------|---------|-----|------|------|

    B/Eb            E            B      C#m    A     E
e|---------|----------------|---------|-----|------|---|
B|-4-4-----|-5-4------------|-4-----4-|-----|------|---|
G|-----6-4-|-----6-4--6-4-6-|----6----|-6-4-|-6--4-|---|
D|---------|----------------|---------|-----|------|-6-|
A|---------|----------------|---------|-----|------|---|
E|---------|----------------|---------|-----|------|---|


Bass Solo: G#--C#-- x8


Outro:
B                    F#
Maybe I could find a way 
     G#m               E
I've gotta make it to LA
B                    F#
Maybe I could find a way 
     G#m               E A
I've gotta make it to LA
B                    F#
Maybe I could find a way 
     G#m               E
I've gotta make it to LA 
B                    F#
Maybe I could find a way 
     G#m               E
I've gotta make it to LA 


Guitar Solo:
    B/Eb            E            B      C#m    A     E(hold)
e|---------|----------------|---------|-----|------|---|
B|-4-4-----|-5-4------------|-4-----4-|-----|------|---|
G|-----6-4-|-----6-4--6-4-6-|----6----|-6-4-|-6--4-|---|
D|---------|----------------|---------|-----|------|-6-|
A|---------|----------------|---------|-----|------|---|
E|---------|----------------|---------|-----|------|---|
Tap to rate this tab
# A B C D E F G H I J K L M N O P Q R S T U V W X Y Z