Song name
# A B C D E F G H I J K L M N O P Q R S T U V W X Y Z

Goblin Cock - Stumped tab

Stumped by Goblin Cock
tabbed by prh 11/27/09
tune down to a# f a# d# c g or all the way to a
this may not be exact, just enough to run through the parts

    intro
e|-----------------------------------------------------------------------------|
B|-----------------------------------------------------------------------------|
G|-----------------------------------------------------------------------------|
D|-----------------------------------------------------------------------------|
A|-----------------------------------------------------------------------------|
E|-----pm 5555555555-----------------------------------------------------------|

	main riff
e|-----------------------------------------------------------------------------|
B|-----------------------------------------------------------------------------|
G|-----------------------------------------------------------------------------|
D|-----------------------------------------------------------------------------|
A|-----------------------------------------------------------------------------|
E|-0h2-2-2 0h2-2-2--5-5-5------------------------------------------------------|

	this gets added to riff above at some point
e|-----------------------------------------------------------------------------|
B|-----------------------------------------------------------------------------|
G|-----------------------------------------------------------------------------|
D|-----------------------------------------------------------------------------|
A|-----------------------------------------------------------------------------|
E|---7-5-2-2-0-2-5-2---------------5-5-5-7-5-2---------------------------------|

	interlude
e|-----------------------------------------------------------------------------|
B|-----------------------------------------------------------------------------|
G|-----------------------------------------------------------------------------|
D|-----------------------------------------------------------------------------|
A|---9-9------5-----------------7-9-9-------9-9-9-11-7-7-----------------------|
E|---7-7-5-7---7p5p0h7-0-5-7-7-------7-7-7h9- 5-5------------------------------|

	outtro

e|-----------------------------------------------------------------------------|
B|-----------------------------------------------------------------------------|
G|-----------------------------------------------------------------------------|
D|-----------------------------------------------------------------------------|
A|-----------------------------------------------------------------------------|
E|----0h2-oh2 etc--------------------------------------------------------------|


e|---------------------------------------------------------------------------|
B|---------------------------------------------------------------------------|
G|---------------------------------------------------------------------------|
D|---------------------------------------------------------------------------|
A|---------------------------------------------------------------------------|
E|---------------------------------------------------------------------------|

================================ TAB Legend ===================================

|  /  slide up
|  \  slide down
|  h  hammer-on
|  p  pull-off
|  b  bend note
|  ~  vibrato
|  H  harmonic
|  PH pinch harmonic
|  x  Muted string

========================= http://tabs.guitarworld.com =========================
Tap to rate this tab
 
# A B C D E F G H I J K L M N O P Q R S T U V W X Y Z